  0
SECTION
  2
HEADER
  9
$ACADVER
  1
AC1015
  9
$ACADMAINTVER
 70
     6
  9
$DWGCODEPAGE
  3
ANSI_932
  9
$INSBASE
 10
0.0
 20
0.0
 30
0.0
  9
$EXTMIN
 10
-70.0
 20
-27.3443355089935
 30
0.0
  9
$EXTMAX
 10
81.3862217972298
 20
73.902295324546
 30
0.0
  9
$LIMMIN
 10
0.0
 20
0.0
  9
$LIMMAX
 10
12.0
 20
9.0
  9
$ORTHOMODE
 70
     0
  9
$REGENMODE
 70
     1
  9
$FILLMODE
 70
     1
  9
$QTEXTMODE
 70
     0
  9
$MIRRTEXT
 70
     1
  9
$LTSCALE
 40
1.0
  9
$ATTMODE
 70
     1
  9
$TEXTSIZE
 40
0.2
  9
$TRACEWID
 40
0.05
  9
$TEXTSTYLE
  7
Standard
  9
$CLAYER
  8
0
  9
$CELTYPE
  6
ByLayer
  9
$CECOLOR
 62
   256
  9
$CELTSCALE
 40
1.0
  9
$DISPSILH
 70
     0
  9
$DIMSCALE
 40
1.0
  9
$DIMASZ
 40
0.18
  9
$DIMEXO
 40
0.0625
  9
$DIMDLI
 40
0.38
  9
$DIMRND
 40
0.0
  9
$DIMDLE
 40
0.0
  9
$DIMEXE
 40
0.18
  9
$DIMTP
 40
0.0
  9
$DIMTM
 40
0.0
  9
$DIMTXT
 40
0.18
  9
$DIMCEN
 40
0.09
  9
$DIMTSZ
 40
0.0
  9
$DIMTOL
 70
     0
  9
$DIMLIM
 70
     0
  9
$DIMTIH
 70
     1
  9
$DIMTOH
 70
     1
  9
$DIMSE1
 70
     0
  9
$DIMSE2
 70
     0
  9
$DIMTAD
 70
     0
  9
$DIMZIN
 70
     0
  9
$DIMBLK
  1

  9
$DIMASO
 70
     1
  9
$DIMSHO
 70
     1
  9
$DIMPOST
  1

  9
$DIMAPOST
  1

  9
$DIMALT
 70
     0
  9
$DIMALTD
 70
     2
  9
$DIMALTF
 40
25.4
  9
$DIMLFAC
 40
1.0
  9
$DIMTOFL
 70
     0
  9
$DIMTVP
 40
0.0
  9
$DIMTIX
 70
     0
  9
$DIMSOXD
 70
     0
  9
$DIMSAH
 70
     0
  9
$DIMBLK1
  1

  9
$DIMBLK2
  1

  9
$DIMSTYLE
  2
Standard
  9
$DIMCLRD
 70
     0
  9
$DIMCLRE
 70
     0
  9
$DIMCLRT
 70
     0
  9
$DIMTFAC
 40
1.0
  9
$DIMGAP
 40
0.09
  9
$DIMJUST
 70
     0
  9
$DIMSD1
 70
     0
  9
$DIMSD2
 70
     0
  9
$DIMTOLJ
 70
     1
  9
$DIMTZIN
 70
     0
  9
$DIMALTZ
 70
     0
  9
$DIMALTTZ
 70
     0
  9
$DIMUPT
 70
     0
  9
$DIMDEC
 70
     4
  9
$DIMTDEC
 70
     4
  9
$DIMALTU
 70
     2
  9
$DIMALTTD
 70
     2
  9
$DIMTXSTY
  7
Standard
  9
$DIMAUNIT
 70
     0
  9
$DIMADEC
 70
     0
  9
$DIMALTRND
 40
0.0
  9
$DIMAZIN
 70
     0
  9
$DIMDSEP
 70
    46
  9
$DIMATFIT
 70
     3
  9
$DIMFRAC
 70
     0
  9
$DIMLDRBLK
  1

  9
$DIMLUNIT
 70
     2
  9
$DIMLWD
 70
    -2
  9
$DIMLWE
 70
    -2
  9
$DIMTMOVE
 70
     0
  9
$LUNITS
 70
     2
  9
$LUPREC
 70
     4
  9
$SKETCHINC
 40
0.1
  9
$FILLETRAD
 40
0.5
  9
$AUNITS
 70
     0
  9
$AUPREC
 70
     0
  9
$MENU
  1
.
  9
$ELEVATION
 40
0.0
  9
$PELEVATION
 40
0.0
  9
$THICKNESS
 40
0.0
  9
$LIMCHECK
 70
     0
  9
$CHAMFERA
 40
0.0
  9
$CHAMFERB
 40
0.0
  9
$CHAMFERC
 40
0.0
  9
$CHAMFERD
 40
0.0
  9
$SKPOLY
 70
     0
  9
$TDCREATE
 40
2458080.423878113
  9
$TDUCREATE
 40
2458080.048878113
  9
$TDUPDATE
 40
2458080.423879745
  9
$TDUUPDATE
 40
2458080.048879745
  9
$TDINDWG
 40
0.0000000116
  9
$TDUSRTIMER
 40
0.0000000116
  9
$USRTIMER
 70
     1
  9
$ANGBASE
 50
0.0
  9
$ANGDIR
 70
     0
  9
$PDMODE
 70
     0
  9
$PDSIZE
 40
0.0
  9
$PLINEWID
 40
0.0
  9
$SPLFRAME
 70
     0
  9
$SPLINETYPE
 70
     6
  9
$SPLINESEGS
 70
     8
  9
$HANDSEED
  5
373
  9
$SURFTAB1
 70
     6
  9
$SURFTAB2
 70
     6
  9
$SURFTYPE
 70
     6
  9
$SURFU
 70
     6
  9
$SURFV
 70
     6
  9
$UCSBASE
  2

  9
$UCSNAME
  2

  9
$UCSORG
 10
0.0
 20
0.0
 30
0.0
  9
$UCSXDIR
 10
1.0
 20
0.0
 30
0.0
  9
$UCSYDIR
 10
0.0
 20
1.0
 30
0.0
  9
$UCSORTHOREF
  2

  9
$UCSORTHOVIEW
 70
     0
  9
$UCSORGTOP
 10
0.0
 20
0.0
 30
0.0
  9
$UCSORGBOTTOM
 10
0.0
 20
0.0
 30
0.0
  9
$UCSORGLEFT
 10
0.0
 20
0.0
 30
0.0
  9
$UCSORGRIGHT
 10
0.0
 20
0.0
 30
0.0
  9
$UCSORGFRONT
 10
0.0
 20
0.0
 30
0.0
  9
$UCSORGBACK
 10
0.0
 20
0.0
 30
0.0
  9
$PUCSBASE
  2

  9
$PUCSNAME
  2

  9
$PUCSORG
 10
0.0
 20
0.0
 30
0.0
  9
$PUCSXDIR
 10
1.0
 20
0.0
 30
0.0
  9
$PUCSYDIR
 10
0.0
 20
1.0
 30
0.0
  9
$PUCSORTHOREF
  2

  9
$PUCSORTHOVIEW
 70
     0
  9
$PUCSORGTOP
 10
0.0
 20
0.0
 30
0.0
  9
$PUCSORGBOTTOM
 10
0.0
 20
0.0
 30
0.0
  9
$PUCSORGLEFT
 10
0.0
 20
0.0
 30
0.0
  9
$PUCSORGRIGHT
 10
0.0
 20
0.0
 30
0.0
  9
$PUCSORGFRONT
 10
0.0
 20
0.0
 30
0.0
  9
$PUCSORGBACK
 10
0.0
 20
0.0
 30
0.0
  9
$USERI1
 70
     0
  9
$USERI2
 70
     0
  9
$USERI3
 70
     0
  9
$USERI4
 70
     0
  9
$USERI5
 70
     0
  9
$USERR1
 40
19.0
  9
$USERR2
 40
0.0
  9
$USERR3
 40
0.0
  9
$USERR4
 40
0.0
  9
$USERR5
 40
0.0
  9
$WORLDVIEW
 70
     1
  9
$SHADEDGE
 70
     3
  9
$SHADEDIF
 70
    70
  9
$TILEMODE
 70
     1
  9
$MAXACTVP
 70
    64
  9
$PINSBASE
 10
0.0
 20
0.0
 30
0.0
  9
$PLIMCHECK
 70
     0
  9
$PEXTMIN
 10
1.00000000000000E+20
 20
1.00000000000000E+20
 30
1.00000000000000E+20
  9
$PEXTMAX
 10
-1.00000000000000E+20
 20
-1.00000000000000E+20
 30
-1.00000000000000E+20
  9
$PLIMMIN
 10
0.0
 20
0.0
  9
$PLIMMAX
 10
12.0
 20
9.0
  9
$UNITMODE
 70
     0
  9
$VISRETAIN
 70
     1
  9
$PLINEGEN
 70
     0
  9
$PSLTSCALE
 70
     1
  9
$TREEDEPTH
 70
  3020
  9
$CMLSTYLE
  2
Standard
  9
$CMLJUST
 70
     0
  9
$CMLSCALE
 40
1.0
  9
$PROXYGRAPHICS
 70
     1
  9
$MEASUREMENT
 70
     1
  9
$CELWEIGHT
370
    -1
  9
$ENDCAPS
280
     0
  9
$JOINSTYLE
280
     0
  9
$LWDISPLAY
290
     0
  9
$INSUNITS
 70
     4
  9
$HYPERLINKBASE
  1

  9
$STYLESHEET
  1

  9
$XEDIT
290
     1
  9
$CEPSNTYPE
380
     0
  9
$PSTYLEMODE
290
     1
  9
$FINGERPRINTGUID
  2
{78B58ADA-44E7-444B-90E6-A1CD0D0BB07B}
  9
$VERSIONGUID
  2
{FAEB1C32-E019-11D5-929B-00C0DF256EC4}
  9
$EXTNAMES
290
     1
  9
$PSVPSCALE
 40
0.0
  9
$OLESTARTUP
290
     0
  0
ENDSEC
  0
SECTION
  2
CLASSES
  0
CLASS
  1
ACDBDICTIONARYWDFLT
  2
AcDbDictionaryWithDefault
  3
ObjectDBX Classes
 90
        0
280
     0
281
     0
  0
CLASS
  1
VISUALSTYLE
  2
AcDbVisualStyle
  3
ObjectDBX Classes
 90
     4095
280
     0
281
     0
  0
CLASS
  1
MATERIAL
  2
AcDbMaterial
  3
ObjectDBX Classes
 90
     1153
280
     0
281
     0
  0
CLASS
  1
SCALE
  2
AcDbScale
  3
ObjectDBX Classes
 90
     1153
280
     0
281
     0
  0
CLASS
  1
SUN
  2
AcDbSun
  3
SCENEOE
 90
     1153
280
     0
281
     0
  0
CLASS
  1
DICTIONARYVAR
  2
AcDbDictionaryVar
  3
ObjectDBX Classes
 90
        0
280
     0
281
     0
  0
CLASS
  1
ACDBPLACEHOLDER
  2
AcDbPlaceHolder
  3
ObjectDBX Classes
 90
        0
280
     0
281
     0
  0
CLASS
  1
LAYOUT
  2
AcDbLayout
  3
ObjectDBX Classes
 90
        0
280
     0
281
     0
  0
ENDSEC
  0
SECTION
  2
TABLES
  0
TABLE
  2
VPORT
  5
8
330
0
100
AcDbSymbolTable
 70
     1
  0
VPORT
  5
29
330
8
100
AcDbSymbolTableRecord
100
AcDbViewportTableRecord
  2
*Active
 70
     0
 10
0.0
 20
0.0
 11
1.0
 21
1.0
 12
5.6931108986149
 22
23.27897990777625
 13
0.0
 23
0.0
 14
0.5
 24
0.5
 15
0.5
 25
0.5
 16
0.0
 26
0.0
 36
1.0
 17
0.0
 27
0.0
 37
0.0
 40
111.3712939168935
 41
1.60267857142857
 42
50.0
 43
0.0
 44
0.0
 50
0.0
 51
0.0
 71
     0
 72
   100
 73
     1
 74
     3
 75
     0
 76
     0
 77
     0
 78
     0
281
     0
 65
     1
110
0.0
120
0.0
130
0.0
111
1.0
121
0.0
131
0.0
112
0.0
122
1.0
132
0.0
 79
     0
146
0.0
  0
ENDTAB
  0
TABLE
  2
LTYPE
  5
5
330
0
100
AcDbSymbolTable
 70
     8
  0
LTYPE
  5
14
330
5
100
AcDbSymbolTableRecord
100
AcDbLinetypeTableRecord
  2
ByBlock
 70
     0
  3

 72
    65
 73
     0
 40
0.0
  0
LTYPE
  5
15
330
5
100
AcDbSymbolTableRecord
100
AcDbLinetypeTableRecord
  2
ByLayer
 70
     0
  3

 72
    65
 73
     0
 40
0.0
  0
LTYPE
  5
16
330
5
100
AcDbSymbolTableRecord
100
AcDbLinetypeTableRecord
  2
Continuous
 70
     0
  3
Solid line
 72
    65
 73
     0
 40
0.0
  0
LTYPE
  5
6A
330
5
100
AcDbSymbolTableRecord
100
AcDbLinetypeTableRecord
  2
DASHED
 70
     0
  3
Dashed
 72
    65
 73
     2
 40
15.0
 49
7.0
 74
     0
 49
-8.0
 74
     0
  0
LTYPE
  5
6B
330
5
100
AcDbSymbolTableRecord
100
AcDbLinetypeTableRecord
  2
DOTTED
 70
     0
  3
Dotted
 72
    65
 73
     2
 40
1.0
 49
0.0
 74
     0
 49
-1.0
 74
     0
  0
LTYPE
  5
6C
330
5
100
AcDbSymbolTableRecord
100
AcDbLinetypeTableRecord
  2
DOT_CENTER
 70
     0
  3
Dot_Center
 72
    65
 73
     4
 40
14.0
 49
12.0
 74
     0
 49
-1.0
 74
     0
 49
0.0
 74
     0
 49
-1.0
 74
     0
  0
LTYPE
  5
6D
330
5
100
AcDbSymbolTableRecord
100
AcDbLinetypeTableRecord
  2
LONG_DASHED
 70
     0
  3
Long_Dashed
 72
    65
 73
     2
 40
15.0
 49
10.0
 74
     0
 49
-5.0
 74
     0
  0
LTYPE
  5
6E
330
5
100
AcDbSymbolTableRecord
100
AcDbLinetypeTableRecord
  2
DASH_CENTER
 70
     0
  3
Dash_Center
 72
    65
 73
     4
 40
14.0
 49
11.0
 74
     0
 49
-1.0
 74
     0
 49
1.0
 74
     0
 49
-1.0
 74
     0
  0
LTYPE
  5
6F
330
5
100
AcDbSymbolTableRecord
100
AcDbLinetypeTableRecord
  2
PHANTOM
 70
     0
  3
Phantom
 72
    65
 73
     6
 40
13.0
 49
10.0
 74
     0
 49
-1.0
 74
     0
 49
0.0
 74
     0
 49
-1.0
 74
     0
 49
0.0
 74
     0
 49
-1.0
 74
     0
  0
LTYPE
  5
70
330
5
100
AcDbSymbolTableRecord
100
AcDbLinetypeTableRecord
  2
CENTER_DASH_DASH
 70
     0
  3
Center_Dash_Dash
 72
    65
 73
     6
 40
14.0
 49
9.0
 74
     0
 49
-1.0
 74
     0
 49
1.0
 74
     0
 49
-1.0
 74
     0
 49
1.0
 74
     0
 49
-1.0
 74
     0
  0
ENDTAB
  0
TABLE
  2
LAYER
  5
2
330
0
100
AcDbSymbolTable
 70
     2
  0
LAYER
  5
10
330
2
100
AcDbSymbolTableRecord
100
AcDbLayerTableRecord
  2
0
 70
     0
 62
     7
  6
Continuous
370
    -3
390
F
  0
LAYER
  5
71
330
2
100
AcDbSymbolTableRecord
100
AcDbLayerTableRecord
  2
1
 70
     0
 62
     7
  6
Continuous
370
    -3
390
F
  0
ENDTAB
  0
TABLE
  2
STYLE
  5
3
330
0
100
AcDbSymbolTable
 70
     1
  0
STYLE
  5
11
330
3
100
AcDbSymbolTableRecord
100
AcDbTextStyleTableRecord
  2
Standard
 70
     0
 40
0.0
 41
1.0
 50
0.0
 71
     0
 42
0.2
  3
txt
  4

  0
ENDTAB
  0
TABLE
  2
VIEW
  5
6
330
0
100
AcDbSymbolTable
 70
     0
  0
ENDTAB
  0
TABLE
  2
UCS
  5
7
330
0
100
AcDbSymbolTable
 70
     0
  0
ENDTAB
  0
TABLE
  2
APPID
  5
9
330
0
100
AcDbSymbolTable
 70
     1
  0
APPID
  5
12
330
9
100
AcDbSymbolTableRecord
100
AcDbRegAppTableRecord
  2
ACAD
 70
     0
  0
ENDTAB
  0
TABLE
  2
DIMSTYLE
  5
A
330
0
100
AcDbSymbolTable
 70
     1
100
AcDbDimStyleTable
  0
DIMSTYLE
105
27
330
A
100
AcDbSymbolTableRecord
100
AcDbDimStyleTableRecord
  2
Standard
 70
     0
178
     0
340
11
  0
ENDTAB
  0
TABLE
  2
BLOCK_RECORD
  5
1
330
0
100
AcDbSymbolTable
 70
     1
  0
BLOCK_RECORD
  5
1F
330
1
100
AcDbSymbolTableRecord
100
AcDbBlockTableRecord
  2
*Model_Space
340
22
  0
BLOCK_RECORD
  5
1B
330
1
100
AcDbSymbolTableRecord
100
AcDbBlockTableRecord
  2
*Paper_Space
340
1E
  0
BLOCK_RECORD
  5
23
330
1
100
AcDbSymbolTableRecord
100
AcDbBlockTableRecord
  2
*Paper_Space0
340
26
  0
ENDTAB
  0
ENDSEC
  0
SECTION
  2
BLOCKS
  0
BLOCK
  5
20
330
1F
100
AcDbEntity
  8
0
100
AcDbBlockBegin
  2
*Model_Space
 70
     0
 10
0.0
 20
0.0
 30
0.0
  3
*Model_Space
  1
*Model_Space
  0
ENDBLK
  5
21
330
1F
100
AcDbEntity
  8
0
100
AcDbBlockEnd
  0
BLOCK
  5
1C
330
1B
100
AcDbEntity
 67
     1
  8
0
100
AcDbBlockBegin
  2
*Paper_Space
 70
     0
 10
0.0
 20
0.0
 30
0.0
  3
*Paper_Space
  1
*Paper_Space
  0
ENDBLK
  5
1D
330
1B
100
AcDbEntity
 67
     1
  8
0
100
AcDbBlockEnd
  0
BLOCK
  5
24
330
23
100
AcDbEntity
  8
0
100
AcDbBlockBegin
  2
*Paper_Space0
 70
     0
 10
0.0
 20
0.0
 30
0.0
  3
*Paper_Space0
  1
*Paper_Space0
  0
ENDBLK
  5
25
330
23
100
AcDbEntity
  8
0
100
AcDbBlockEnd
  0
ENDSEC
  0
SECTION
  2
ENTITIES
  0
POINT
  5
72
330
1F
100
AcDbEntity
  8
1
 62
     3
 60
     1
100
AcDbPoint
 10
-54.0
 20
-0.00000000000001
 30
0.0
  0
POINT
  5
73
330
1F
100
AcDbEntity
  8
1
 62
     3
 60
     1
100
AcDbPoint
 10
77.9494341106958
 20
42.0
 30
0.0
  0
LINE
  5
74
330
1F
100
AcDbEntity
  8
1
  6
DOT_CENTER
 62
     4
100
AcDbLine
 10
-38.0
 20
-0.00000000000001
 30
0.0
 11
-70.0
 21
0.0
 31
0.0
  0
LINE
  5
75
330
1F
100
AcDbEntity
  8
1
  6
Continuous
 62
     3
100
AcDbLine
 10
13.560226344053
 20
16.5000000000001
 30
0.0
 11
-11.1838606478891
 21
16.5000000000001
 31
0.0
  0
LINE
  5
76
330
1F
100
AcDbEntity
  8
1
  6
Continuous
 62
     3
100
AcDbLine
 10
-61.50555349946514
 20
-13.00000000000001
 30
0.0
 11
-46.49444650053487
 21
-13.00000000000002
 31
0.0
  0
LINE
  5
77
330
1F
100
AcDbEntity
  8
1
  6
Continuous
 62
     3
100
AcDbLine
 10
-38.98889300106972
 20
-0.00000000000001
 30
0.0
 11
-46.49444650053486
 21
13.0
 31
0.0
  0
LINE
  5
78
330
1F
100
AcDbEntity
  8
1
  6
Continuous
 62
     3
100
AcDbLine
 10
-46.49444650053487
 20
-13.00000000000002
 30
0.0
 11
-38.98889300106972
 21
-0.00000000000001
 31
0.0
  0
LINE
  5
79
330
1F
100
AcDbEntity
  8
1
  6
Continuous
 62
     3
100
AcDbLine
 10
-69.01110699893027
 20
-0.00000000000001
 30
0.0
 11
-61.50555349946514
 21
-13.00000000000001
 31
0.0
  0
LINE
  5
7A
330
1F
100
AcDbEntity
  8
1
  6
Continuous
 62
     3
100
AcDbLine
 10
-61.50555349946514
 20
13.0
 30
0.0
 11
-69.01110699893027
 21
-0.00000000000001
 31
0.0
  0
LINE
  5
7B
330
1F
100
AcDbEntity
  8
1
  6
Continuous
 62
     3
100
AcDbLine
 10
-46.49444650053486
 20
13.0
 30
0.0
 11
-61.50555349946514
 21
13.0
 31
0.0
  0
LINE
  5
7C
330
1F
100
AcDbEntity
  8
1
  6
Continuous
 62
     3
100
AcDbLine
 10
40.26
 20
-27.0443355089935
 30
0.0
 11
39.94
 21
-26.8443355089935
 31
0.0
  0
LINE
  5
7D
330
1F
100
AcDbEntity
  8
1
  6
Continuous
 62
     3
100
AcDbLine
 10
40.58
 20
-27.3443355089935
 30
0.0
 11
40.26
 21
-27.0443355089935
 31
0.0
  0
LINE
  5
7E
330
1F
100
AcDbEntity
  8
1
  6
Continuous
 62
     3
100
AcDbLine
 10
40.98
 20
-27.3443355089935
 30
0.0
 11
40.58
 21
-27.3443355089935
 31
0.0
  0
LINE
  5
7F
330
1F
100
AcDbEntity
  8
1
  6
Continuous
 62
     3
100
AcDbLine
 10
41.3
 20
-27.3443355089935
 30
0.0
 11
40.98
 21
-27.3443355089935
 31
0.0
  0
LINE
  5
80
330
1F
100
AcDbEntity
  8
1
  6
Continuous
 62
     3
100
AcDbLine
 10
41.54
 20
-27.0443355089935
 30
0.0
 11
41.3
 21
-27.3443355089935
 31
0.0
  0
LINE
  5
81
330
1F
100
AcDbEntity
  8
1
  6
Continuous
 62
     3
100
AcDbLine
 10
41.7
 20
-26.8443355089935
 30
0.0
 11
41.54
 21
-27.0443355089935
 31
0.0
  0
LINE
  5
82
330
1F
100
AcDbEntity
  8
1
  6
Continuous
 62
     3
100
AcDbLine
 10
41.86
 20
-26.1443355089935
 30
0.0
 11
41.7
 21
-26.8443355089935
 31
0.0
  0
LINE
  5
83
330
1F
100
AcDbEntity
  8
1
  6
Continuous
 62
     3
100
AcDbLine
 10
41.7
 20
-25.4443355089935
 30
0.0
 11
41.86
 21
-26.1443355089935
 31
0.0
  0
LINE
  5
84
330
1F
100
AcDbEntity
  8
1
  6
Continuous
 62
     3
100
AcDbLine
 10
41.54
 20
-25.2443355089935
 30
0.0
 11
41.7
 21
-25.4443355089935
 31
0.0
  0
LINE
  5
85
330
1F
100
AcDbEntity
  8
1
  6
Continuous
 62
     3
100
AcDbLine
 10
41.3
 20
-24.9443355089935
 30
0.0
 11
41.54
 21
-25.2443355089935
 31
0.0
  0
LINE
  5
86
330
1F
100
AcDbEntity
  8
1
  6
Continuous
 62
     3
100
AcDbLine
 10
40.9
 20
-24.8443355089935
 30
0.0
 11
41.3
 21
-24.9443355089935
 31
0.0
  0
LINE
  5
87
330
1F
100
AcDbEntity
  8
1
  6
Continuous
 62
     3
100
AcDbLine
 10
40.5
 20
-24.9443355089935
 30
0.0
 11
40.9
 21
-24.8443355089935
 31
0.0
  0
LINE
  5
88
330
1F
100
AcDbEntity
  8
1
  6
Continuous
 62
     3
100
AcDbLine
 10
40.02
 20
-25.3443355089935
 30
0.0
 11
40.5
 21
-24.9443355089935
 31
0.0
  0
LINE
  5
89
330
1F
100
AcDbEntity
  8
1
  6
Continuous
 62
     3
100
AcDbLine
 10
40.1
 20
-23.3443355089935
 30
0.0
 11
40.02
 21
-25.3443355089935
 31
0.0
  0
LINE
  5
8A
330
1F
100
AcDbEntity
  8
1
  6
Continuous
 62
     3
100
AcDbLine
 10
41.7
 20
-23.3443355089935
 30
0.0
 11
40.1
 21
-23.3443355089935
 31
0.0
  0
LINE
  5
8B
330
1F
100
AcDbEntity
  8
1
  6
Continuous
 62
     3
100
AcDbLine
 10
37.3
 20
-23.3443355089935
 30
0.0
 11
37.3
 21
-27.3443355089935
 31
0.0
  0
LINE
  5
8C
330
1F
100
AcDbEntity
  8
1
  6
Continuous
 62
     3
100
AcDbLine
 10
36.82
 20
-23.7443355089935
 30
0.0
 11
37.3
 21
-23.3443355089935
 31
0.0
  0
LINE
  5
8D
330
1F
100
AcDbEntity
  8
1
  6
Continuous
 62
     3
100
AcDbLine
 10
32.5
 20
-25.3443355089935
 30
0.0
 11
34.18
 21
-25.3443355089935
 31
0.0
  0
LINE
  5
8E
330
1F
100
AcDbEntity
  8
1
  6
Continuous
 62
     3
100
AcDbLine
 10
29.78
 20
-23.3443355089935
 30
0.0
 11
29.78
 21
-27.3443355089935
 31
0.0
  0
LINE
  5
8F
330
1F
100
AcDbEntity
  8
1
  6
Continuous
 62
     3
100
AcDbLine
 10
29.3
 20
-23.7443355089935
 30
0.0
 11
29.78
 21
-23.3443355089935
 31
0.0
  0
LINE
  5
90
330
1F
100
AcDbEntity
  8
1
  6
Continuous
 62
     3
100
AcDbLine
 10
26.42
 20
-23.6443355089935
 30
0.0
 11
25.86
 21
-23.3443355089935
 31
0.0
  0
LINE
  5
91
330
1F
100
AcDbEntity
  8
1
  6
Continuous
 62
     3
100
AcDbLine
 10
26.82
 20
-24.2443355089935
 30
0.0
 11
26.42
 21
-23.6443355089935
 31
0.0
  0
LINE
  5
92
330
1F
100
AcDbEntity
  8
1
  6
Continuous
 62
     3
100
AcDbLine
 10
26.9
 20
-25.3443355089935
 30
0.0
 11
26.82
 21
-24.2443355089935
 31
0.0
  0
LINE
  5
93
330
1F
100
AcDbEntity
  8
1
  6
Continuous
 62
     3
100
AcDbLine
 10
26.82
 20
-26.4443355089935
 30
0.0
 11
26.9
 21
-25.3443355089935
 31
0.0
  0
LINE
  5
94
330
1F
100
AcDbEntity
  8
1
  6
Continuous
 62
     3
100
AcDbLine
 10
26.42
 20
-27.0443355089935
 30
0.0
 11
26.82
 21
-26.4443355089935
 31
0.0
  0
LINE
  5
95
330
1F
100
AcDbEntity
  8
1
  6
Continuous
 62
     3
100
AcDbLine
 10
25.86
 20
-27.3443355089935
 30
0.0
 11
26.42
 21
-27.0443355089935
 31
0.0
  0
LINE
  5
96
330
1F
100
AcDbEntity
  8
1
  6
Continuous
 62
     3
100
AcDbLine
 10
25.3
 20
-27.0443355089935
 30
0.0
 11
25.86
 21
-27.3443355089935
 31
0.0
  0
LINE
  5
97
330
1F
100
AcDbEntity
  8
1
  6
Continuous
 62
     3
100
AcDbLine
 10
24.98
 20
-26.4443355089935
 30
0.0
 11
25.3
 21
-27.0443355089935
 31
0.0
  0
LINE
  5
98
330
1F
100
AcDbEntity
  8
1
  6
Continuous
 62
     3
100
AcDbLine
 10
24.82
 20
-25.3443355089935
 30
0.0
 11
24.98
 21
-26.4443355089935
 31
0.0
  0
LINE
  5
99
330
1F
100
AcDbEntity
  8
1
  6
Continuous
 62
     3
100
AcDbLine
 10
24.98
 20
-24.2443355089935
 30
0.0
 11
24.82
 21
-25.3443355089935
 31
0.0
  0
LINE
  5
9A
330
1F
100
AcDbEntity
  8
1
  6
Continuous
 62
     3
100
AcDbLine
 10
25.3
 20
-23.6443355089935
 30
0.0
 11
24.98
 21
-24.2443355089935
 31
0.0
  0
LINE
  5
9B
330
1F
100
AcDbEntity
  8
1
  6
Continuous
 62
     3
100
AcDbLine
 10
25.86
 20
-23.3443355089935
 30
0.0
 11
25.3
 21
-23.6443355089935
 31
0.0
  0
LINE
  5
9C
330
1F
100
AcDbEntity
  8
1
  6
Continuous
 62
     3
100
AcDbLine
 10
21.22
 20
-25.3443355089935
 30
0.0
 11
22.9
 21
-25.3443355089935
 31
0.0
  0
LINE
  5
9D
330
1F
100
AcDbEntity
  8
1
  6
Continuous
 62
     3
100
AcDbLine
 10
17.7
 20
-26.9443355089935
 30
0.0
 11
17.46
 21
-26.4443355089935
 31
0.0
  0
LINE
  5
9E
330
1F
100
AcDbEntity
  8
1
  6
Continuous
 62
     3
100
AcDbLine
 10
17.94
 20
-27.2443355089935
 30
0.0
 11
17.7
 21
-26.9443355089935
 31
0.0
  0
LINE
  5
9F
330
1F
100
AcDbEntity
  8
1
  6
Continuous
 62
     3
100
AcDbLine
 10
18.34
 20
-27.3443355089935
 30
0.0
 11
17.94
 21
-27.2443355089935
 31
0.0
  0
LINE
  5
A0
330
1F
100
AcDbEntity
  8
1
  6
Continuous
 62
     3
100
AcDbLine
 10
18.74
 20
-27.3443355089935
 30
0.0
 11
18.34
 21
-27.3443355089935
 31
0.0
  0
LINE
  5
A1
330
1F
100
AcDbEntity
  8
1
  6
Continuous
 62
     3
100
AcDbLine
 10
18.98
 20
-27.2443355089935
 30
0.0
 11
18.74
 21
-27.3443355089935
 31
0.0
  0
LINE
  5
A2
330
1F
100
AcDbEntity
  8
1
  6
Continuous
 62
     3
100
AcDbLine
 10
19.3
 20
-26.9443355089935
 30
0.0
 11
18.98
 21
-27.2443355089935
 31
0.0
  0
LINE
  5
A3
330
1F
100
AcDbEntity
  8
1
  6
Continuous
 62
     3
100
AcDbLine
 10
19.38
 20
-26.4443355089935
 30
0.0
 11
19.3
 21
-26.9443355089935
 31
0.0
  0
LINE
  5
A4
330
1F
100
AcDbEntity
  8
1
  6
Continuous
 62
     3
100
AcDbLine
 10
19.3
 20
-25.8443355089935
 30
0.0
 11
19.38
 21
-26.4443355089935
 31
0.0
  0
LINE
  5
A5
330
1F
100
AcDbEntity
  8
1
  6
Continuous
 62
     3
100
AcDbLine
 10
18.98
 20
-25.4443355089935
 30
0.0
 11
19.3
 21
-25.8443355089935
 31
0.0
  0
LINE
  5
A6
330
1F
100
AcDbEntity
  8
1
  6
Continuous
 62
     3
100
AcDbLine
 10
18.74
 20
-25.3443355089935
 30
0.0
 11
18.98
 21
-25.4443355089935
 31
0.0
  0
LINE
  5
A7
330
1F
100
AcDbEntity
  8
1
  6
Continuous
 62
     3
100
AcDbLine
 10
18.34
 20
-25.3443355089935
 30
0.0
 11
18.74
 21
-25.3443355089935
 31
0.0
  0
LINE
  5
A8
330
1F
100
AcDbEntity
  8
1
  6
Continuous
 62
     3
100
AcDbLine
 10
17.94
 20
-25.2443355089935
 30
0.0
 11
18.34
 21
-25.3443355089935
 31
0.0
  0
LINE
  5
A9
330
1F
100
AcDbEntity
  8
1
  6
Continuous
 62
     3
100
AcDbLine
 10
17.78
 20
-25.0443355089935
 30
0.0
 11
17.94
 21
-25.2443355089935
 31
0.0
  0
LINE
  5
AA
330
1F
100
AcDbEntity
  8
1
  6
Continuous
 62
     3
100
AcDbLine
 10
17.54
 20
-24.8443355089935
 30
0.0
 11
17.78
 21
-25.0443355089935
 31
0.0
  0
LINE
  5
AB
330
1F
100
AcDbEntity
  8
1
  6
Continuous
 62
     3
100
AcDbLine
 10
17.46
 20
-24.2443355089935
 30
0.0
 11
17.54
 21
-24.8443355089935
 31
0.0
  0
LINE
  5
AC
330
1F
100
AcDbEntity
  8
1
  6
Continuous
 62
     3
100
AcDbLine
 10
17.54
 20
-23.8443355089935
 30
0.0
 11
17.46
 21
-24.2443355089935
 31
0.0
  0
LINE
  5
AD
330
1F
100
AcDbEntity
  8
1
  6
Continuous
 62
     3
100
AcDbLine
 10
17.86
 20
-23.6443355089935
 30
0.0
 11
17.54
 21
-23.8443355089935
 31
0.0
  0
LINE
  5
AE
330
1F
100
AcDbEntity
  8
1
  6
Continuous
 62
     3
100
AcDbLine
 10
18.02
 20
-23.4443355089935
 30
0.0
 11
17.86
 21
-23.6443355089935
 31
0.0
  0
LINE
  5
AF
330
1F
100
AcDbEntity
  8
1
  6
Continuous
 62
     3
100
AcDbLine
 10
18.34
 20
-23.4443355089935
 30
0.0
 11
18.02
 21
-23.4443355089935
 31
0.0
  0
LINE
  5
B0
330
1F
100
AcDbEntity
  8
1
  6
Continuous
 62
     3
100
AcDbLine
 10
18.74
 20
-23.4443355089935
 30
0.0
 11
18.34
 21
-23.4443355089935
 31
0.0
  0
LINE
  5
B1
330
1F
100
AcDbEntity
  8
1
  6
Continuous
 62
     3
100
AcDbLine
 10
19.06
 20
-23.7443355089935
 30
0.0
 11
18.74
 21
-23.4443355089935
 31
0.0
  0
LINE
  5
B2
330
1F
100
AcDbEntity
  8
1
  6
Continuous
 62
     3
100
AcDbLine
 10
19.3
 20
-24.1443355089935
 30
0.0
 11
19.06
 21
-23.7443355089935
 31
0.0
  0
LINE
  5
B3
330
1F
100
AcDbEntity
  8
1
  6
Continuous
 62
     3
100
AcDbLine
 10
13.94
 20
-26.9443355089935
 30
0.0
 11
13.7
 21
-26.4443355089935
 31
0.0
  0
LINE
  5
B4
330
1F
100
AcDbEntity
  8
1
  6
Continuous
 62
     3
100
AcDbLine
 10
14.18
 20
-27.2443355089935
 30
0.0
 11
13.94
 21
-26.9443355089935
 31
0.0
  0
LINE
  5
B5
330
1F
100
AcDbEntity
  8
1
  6
Continuous
 62
     3
100
AcDbLine
 10
14.58
 20
-27.3443355089935
 30
0.0
 11
14.18
 21
-27.2443355089935
 31
0.0
  0
LINE
  5
B6
330
1F
100
AcDbEntity
  8
1
  6
Continuous
 62
     3
100
AcDbLine
 10
14.98
 20
-27.3443355089935
 30
0.0
 11
14.58
 21
-27.3443355089935
 31
0.0
  0
LINE
  5
B7
330
1F
100
AcDbEntity
  8
1
  6
Continuous
 62
     3
100
AcDbLine
 10
15.22
 20
-27.2443355089935
 30
0.0
 11
14.98
 21
-27.3443355089935
 31
0.0
  0
LINE
  5
B8
330
1F
100
AcDbEntity
  8
1
  6
Continuous
 62
     3
100
AcDbLine
 10
15.54
 20
-26.9443355089935
 30
0.0
 11
15.22
 21
-27.2443355089935
 31
0.0
  0
LINE
  5
B9
330
1F
100
AcDbEntity
  8
1
  6
Continuous
 62
     3
100
AcDbLine
 10
15.62
 20
-26.4443355089935
 30
0.0
 11
15.54
 21
-26.9443355089935
 31
0.0
  0
LINE
  5
BA
330
1F
100
AcDbEntity
  8
1
  6
Continuous
 62
     3
100
AcDbLine
 10
15.54
 20
-25.8443355089935
 30
0.0
 11
15.62
 21
-26.4443355089935
 31
0.0
  0
LINE
  5
BB
330
1F
100
AcDbEntity
  8
1
  6
Continuous
 62
     3
100
AcDbLine
 10
15.22
 20
-25.4443355089935
 30
0.0
 11
15.54
 21
-25.8443355089935
 31
0.0
  0
LINE
  5
BC
330
1F
100
AcDbEntity
  8
1
  6
Continuous
 62
     3
100
AcDbLine
 10
14.98
 20
-25.3443355089935
 30
0.0
 11
15.22
 21
-25.4443355089935
 31
0.0
  0
LINE
  5
BD
330
1F
100
AcDbEntity
  8
1
  6
Continuous
 62
     3
100
AcDbLine
 10
14.58
 20
-25.3443355089935
 30
0.0
 11
14.98
 21
-25.3443355089935
 31
0.0
  0
LINE
  5
BE
330
1F
100
AcDbEntity
  8
1
  6
Continuous
 62
     3
100
AcDbLine
 10
14.18
 20
-25.2443355089935
 30
0.0
 11
14.58
 21
-25.3443355089935
 31
0.0
  0
LINE
  5
BF
330
1F
100
AcDbEntity
  8
1
  6
Continuous
 62
     3
100
AcDbLine
 10
14.02
 20
-25.0443355089935
 30
0.0
 11
14.18
 21
-25.2443355089935
 31
0.0
  0
LINE
  5
C0
330
1F
100
AcDbEntity
  8
1
  6
Continuous
 62
     3
100
AcDbLine
 10
13.78
 20
-24.8443355089935
 30
0.0
 11
14.02
 21
-25.0443355089935
 31
0.0
  0
LINE
  5
C1
330
1F
100
AcDbEntity
  8
1
  6
Continuous
 62
     3
100
AcDbLine
 10
13.7
 20
-24.2443355089935
 30
0.0
 11
13.78
 21
-24.8443355089935
 31
0.0
  0
LINE
  5
C2
330
1F
100
AcDbEntity
  8
1
  6
Continuous
 62
     3
100
AcDbLine
 10
13.78
 20
-23.8443355089935
 30
0.0
 11
13.7
 21
-24.2443355089935
 31
0.0
  0
LINE
  5
C3
330
1F
100
AcDbEntity
  8
1
  6
Continuous
 62
     3
100
AcDbLine
 10
14.1
 20
-23.6443355089935
 30
0.0
 11
13.78
 21
-23.8443355089935
 31
0.0
  0
LINE
  5
C4
330
1F
100
AcDbEntity
  8
1
  6
Continuous
 62
     3
100
AcDbLine
 10
14.26
 20
-23.4443355089935
 30
0.0
 11
14.1
 21
-23.6443355089935
 31
0.0
  0
LINE
  5
C5
330
1F
100
AcDbEntity
  8
1
  6
Continuous
 62
     3
100
AcDbLine
 10
14.58
 20
-23.4443355089935
 30
0.0
 11
14.26
 21
-23.4443355089935
 31
0.0
  0
LINE
  5
C6
330
1F
100
AcDbEntity
  8
1
  6
Continuous
 62
     3
100
AcDbLine
 10
14.98
 20
-23.4443355089935
 30
0.0
 11
14.58
 21
-23.4443355089935
 31
0.0
  0
LINE
  5
C7
330
1F
100
AcDbEntity
  8
1
  6
Continuous
 62
     3
100
AcDbLine
 10
15.3
 20
-23.7443355089935
 30
0.0
 11
14.98
 21
-23.4443355089935
 31
0.0
  0
LINE
  5
C8
330
1F
100
AcDbEntity
  8
1
  6
Continuous
 62
     3
100
AcDbLine
 10
15.54
 20
-24.1443355089935
 30
0.0
 11
15.3
 21
-23.7443355089935
 31
0.0
  0
LINE
  5
C9
330
1F
100
AcDbEntity
  8
1
  6
Continuous
 62
     3
100
AcDbLine
 10
11.22
 20
-27.3443355089935
 30
0.0
 11
10.02
 21
-27.3443355089935
 31
0.0
  0
LINE
  5
CA
330
1F
100
AcDbEntity
  8
1
  6
Continuous
 62
     3
100
AcDbLine
 10
11.78
 20
-27.0443355089935
 30
0.0
 11
11.22
 21
-27.3443355089935
 31
0.0
  0
LINE
  5
CB
330
1F
100
AcDbEntity
  8
1
  6
Continuous
 62
     3
100
AcDbLine
 10
11.94
 20
-26.4443355089935
 30
0.0
 11
11.78
 21
-27.0443355089935
 31
0.0
  0
LINE
  5
CC
330
1F
100
AcDbEntity
  8
1
  6
Continuous
 62
     3
100
AcDbLine
 10
11.78
 20
-25.7443355089935
 30
0.0
 11
11.94
 21
-26.4443355089935
 31
0.0
  0
LINE
  5
CD
330
1F
100
AcDbEntity
  8
1
  6
Continuous
 62
     3
100
AcDbLine
 10
11.22
 20
-25.4443355089935
 30
0.0
 11
11.78
 21
-25.7443355089935
 31
0.0
  0
LINE
  5
CE
330
1F
100
AcDbEntity
  8
1
  6
Continuous
 62
     3
100
AcDbLine
 10
10.02
 20
-25.4443355089935
 30
0.0
 11
11.22
 21
-25.4443355089935
 31
0.0
  0
LINE
  5
CF
330
1F
100
AcDbEntity
  8
1
  6
Continuous
 62
     3
100
AcDbLine
 10
11.22
 20
-25.4443355089935
 30
0.0
 11
10.02
 21
-25.4443355089935
 31
0.0
  0
LINE
  5
D0
330
1F
100
AcDbEntity
  8
1
  6
Continuous
 62
     3
100
AcDbLine
 10
11.62
 20
-25.0443355089935
 30
0.0
 11
11.22
 21
-25.4443355089935
 31
0.0
  0
LINE
  5
D1
330
1F
100
AcDbEntity
  8
1
  6
Continuous
 62
     3
100
AcDbLine
 10
11.78
 20
-24.5443355089935
 30
0.0
 11
11.62
 21
-25.0443355089935
 31
0.0
  0
LINE
  5
D2
330
1F
100
AcDbEntity
  8
1
  6
Continuous
 62
     3
100
AcDbLine
 10
11.62
 20
-23.8443355089935
 30
0.0
 11
11.78
 21
-24.5443355089935
 31
0.0
  0
LINE
  5
D3
330
1F
100
AcDbEntity
  8
1
  6
Continuous
 62
     3
100
AcDbLine
 10
11.22
 20
-23.6443355089935
 30
0.0
 11
11.62
 21
-23.8443355089935
 31
0.0
  0
LINE
  5
D4
330
1F
100
AcDbEntity
  8
1
  6
Continuous
 62
     3
100
AcDbLine
 10
10.02
 20
-23.6443355089935
 30
0.0
 11
11.22
 21
-23.6443355089935
 31
0.0
  0
LINE
  5
D5
330
1F
100
AcDbEntity
  8
1
  6
Continuous
 62
     3
100
AcDbLine
 10
10.02
 20
-27.3443355089935
 30
0.0
 11
10.02
 21
-23.6443355089935
 31
0.0
  0
LINE
  5
D6
330
1F
100
AcDbEntity
  8
1
  6
Continuous
 62
     3
100
AcDbLine
 10
-46.848528137424
 20
34.0788868714885
 30
0.0
 11
-46.848528137424
 21
35.9504118433137
 31
0.0
  0
LINE
  5
D7
330
1F
100
AcDbEntity
  8
1
  6
DOT_CENTER
 62
     4
100
AcDbLine
 10
0.0
 20
-15.5
 30
0.0
 11
0.0
 21
24.0
 31
0.0
  0
LINE
  5
D8
330
1F
100
AcDbEntity
  8
1
  6
Continuous
 62
     3
100
AcDbLine
 10
5.5
 20
14.0
 30
0.0
 11
5.5
 21
13.0
 31
0.0
  0
LINE
  5
D9
330
1F
100
AcDbEntity
  8
1
  6
Continuous
 62
     3
100
AcDbLine
 10
-6.25
 20
14.5
 30
0.0
 11
-6.25
 21
14.0
 31
0.0
  0
LINE
  5
DA
330
1F
100
AcDbEntity
  8
1
  6
Continuous
 62
     3
100
AcDbLine
 10
6.25
 20
14.5
 30
0.0
 11
6.25
 21
14.0
 31
0.0
  0
LINE
  5
DB
330
1F
100
AcDbEntity
  8
1
  6
Continuous
 62
     3
100
AcDbLine
 10
-6.09999999999999
 20
18.0000000000001
 30
0.0
 11
1.24376587031428
 21
18.0000000000001
 31
0.0
  0
LINE
  5
DC
330
1F
100
AcDbEntity
  8
1
  6
Continuous
 62
     3
100
AcDbLine
 10
6.10000000000002
 20
18.0000000000001
 30
0.0
 11
6.10000000000002
 21
16.5000000000001
 31
0.0
  0
LINE
  5
DD
330
1F
100
AcDbEntity
  8
1
  6
Continuous
 62
     3
100
AcDbLine
 10
-6.09999999999999
 20
18.0000000000001
 30
0.0
 11
-6.09999999999999
 21
16.5000000000001
 31
0.0
  0
LINE
  5
DE
330
1F
100
AcDbEntity
  8
1
  6
Continuous
 62
     3
100
AcDbLine
 10
5.75
 20
21.1092522711889
 30
0.0
 11
5.75
 21
18.4907477288114
 31
0.0
  0
LINE
  5
DF
330
1F
100
AcDbEntity
  8
1
  6
Continuous
 62
     3
100
AcDbLine
 10
4.89999999999998
 20
21.6000000000001
 30
0.0
 11
5.75
 21
21.1092522711889
 31
0.0
  0
LINE
  5
E0
330
1F
100
AcDbEntity
  8
1
  6
Continuous
 62
     3
100
AcDbLine
 10
-5.75
 20
21.1092522711889
 30
0.0
 11
-4.89999999999998
 21
21.6000000000001
 31
0.0
  0
LINE
  5
E1
330
1F
100
AcDbEntity
  8
1
  6
Continuous
 62
     3
100
AcDbLine
 10
-5.75
 20
18.4907477288114
 30
0.0
 11
-5.75
 21
21.1092522711889
 31
0.0
  0
LINE
  5
E2
330
1F
100
AcDbEntity
  8
1
  6
Continuous
 62
     3
100
AcDbLine
 10
-5.75
 20
18.4907477288114
 30
0.0
 11
-4.89999999999998
 21
18.0000000000001
 31
0.0
  0
LINE
  5
E3
330
1F
100
AcDbEntity
  8
1
  6
Continuous
 62
     3
100
AcDbLine
 10
-4.89999999999998
 20
21.6000000000001
 30
0.0
 11
4.89999999999998
 21
21.6000000000001
 31
0.0
  0
LINE
  5
E4
330
1F
100
AcDbEntity
  8
1
  6
Continuous
 62
     3
100
AcDbLine
 10
4.90000000000001
 20
18.0000000000001
 30
0.0
 11
5.75
 21
18.4907477288114
 31
0.0
  0
LINE
  5
E5
330
1F
100
AcDbEntity
  8
1
  6
Continuous
 62
     3
100
AcDbLine
 10
2.82901631902916
 20
21.1092522711889
 30
0.0
 11
2.82901631902916
 21
18.4907477288114
 31
0.0
  0
LINE
  5
E6
330
1F
100
AcDbEntity
  8
1
  6
Continuous
 62
     3
100
AcDbLine
 10
-2.82901631902917
 20
21.1092522711889
 30
0.0
 11
-2.82901631902917
 21
18.4907477288114
 31
0.0
  0
LINE
  5
E7
330
1F
100
AcDbEntity
  8
1
  6
Continuous
 62
     3
100
AcDbLine
 10
1.24376587031428
 20
18.0000000000001
 30
0.0
 11
6.10000000000002
 21
18.0000000000001
 31
0.0
  0
LINE
  5
E8
330
1F
100
AcDbEntity
  8
1
  6
DOT_CENTER
 62
     4
100
AcDbLine
 10
0.0
 20
73.902295324546
 30
0.0
 11
0.0
 21
41.8255850113461
 31
0.0
  0
LINE
  5
E9
330
1F
100
AcDbEntity
  8
1
  6
Continuous
 62
     3
100
AcDbLine
 10
-11.2429978208661
 20
73.4856385079854
 30
0.0
 11
-15.4856385079852
 21
69.2429978208662
 31
0.0
  0
LINE
  5
EA
330
1F
100
AcDbEntity
  8
1
  6
Continuous
 62
     3
100
AcDbLine
 10
-15.4856385079852
 20
69.2429978208662
 30
0.0
 11
-11.9141203909821
 21
65.6714797038633
 31
0.0
  0
LINE
  5
EB
330
1F
100
AcDbEntity
  8
1
  6
Continuous
 62
     3
100
AcDbLine
 10
-11.2429978208661
 20
73.4856385079854
 30
0.0
 11
-7.67147970386304
 21
69.9141203909827
 31
0.0
  0
LINE
  5
EC
330
1F
100
AcDbEntity
  8
1
  6
Continuous
 62
     3
100
AcDbLine
 10
-11.71863632885148
 20
73.01
 30
0.0
 11
-25.34378770605419
 21
73.01
 31
0.0
  0
LINE
  5
ED
330
1F
100
AcDbEntity
  8
1
  6
DOT_CENTER
 62
     4
100
AcDbLine
 10
72.928714411938
 20
58.0
 30
0.0
 11
81.3862217972298
 21
58.0
 31
0.0
  0
LINE
  5
EE
330
1F
100
AcDbEntity
  8
1
  6
Continuous
 62
     3
100
AcDbLine
 10
21.1842724959499
 20
66.8523017357383
 30
0.0
 11
29.151471862577
 21
66.8523017357383
 31
0.0
  0
LINE
  5
EF
330
1F
100
AcDbEntity
  8
1
  6
Continuous
 62
     3
100
AcDbLine
 10
52.151471862577
 20
48.848528137424
 30
0.0
 11
29.151471862577
 21
50.8447545391096
 31
0.0
  0
LINE
  5
F0
330
1F
100
AcDbEntity
  8
1
  6
Continuous
 62
     3
100
AcDbLine
 10
21.1842724959499
 20
50.8447545391096
 30
0.0
 11
29.151471862577
 21
50.8447545391096
 31
0.0
  0
LINE
  5
F1
330
1F
100
AcDbEntity
  8
1
  6
Continuous
 62
     3
100
AcDbLine
 10
20.0325147625199
 20
65.848528137424
 30
0.0
 11
20.351471862577
 21
65.848528137424
 31
0.0
  0
LINE
  5
F2
330
1F
100
AcDbEntity
  8
1
  6
Continuous
 62
     3
100
AcDbLine
 10
29.151471862577
 20
66.8523017357383
 30
0.0
 11
52.151471862577
 21
68.848528137424
 31
0.0
  0
LINE
  5
F3
330
1F
100
AcDbEntity
  8
1
  6
Continuous
 62
     3
100
AcDbLine
 10
-2.23646542804499
 20
56.0
 30
0.0
 11
2.23646542804499
 21
56.0
 31
0.0
  0
LINE
  5
F4
330
1F
100
AcDbEntity
  8
1
  6
Continuous
 62
     3
100
AcDbLine
 10
2.23646542804499
 20
60.0
 30
0.0
 11
-2.23646542804499
 21
60.0
 31
0.0
  0
LINE
  5
F5
330
1F
100
AcDbEntity
  8
1
  6
LONG_DASHED
 62
     4
100
AcDbLine
 10
-14.0714249456121
 20
67.828784258493
 30
0.0
 11
-9.82878425849299
 21
72.0714249456123
 31
0.0
  0
LINE
  5
F6
330
1F
100
AcDbEntity
  8
1
  6
Continuous
 62
     3
100
AcDbLine
 10
-5.747723231809
 20
57.9553486653382
 30
0.0
 11
-2.87286912643708
 21
62.9759552904854
 31
0.0
  0
LINE
  5
F7
330
1F
100
AcDbEntity
  8
1
  6
Continuous
 62
     3
100
AcDbLine
 10
-2.87286912643708
 20
62.9759552904854
 30
0.0
 11
2.90063356545898
 21
62.9759552904853
 31
0.0
  0
LINE
  5
F8
330
1F
100
AcDbEntity
  8
1
  6
Continuous
 62
     3
100
AcDbLine
 10
5.76388221951083
 20
58.0166631469643
 30
0.0
 11
2.87713087356292
 21
53.0166631469644
 31
0.0
  0
LINE
  5
F9
330
1F
100
AcDbEntity
  8
1
  6
Continuous
 62
     3
100
AcDbLine
 10
2.87713087356292
 20
53.0166631469644
 30
0.0
 11
-2.90826905890913
 21
53.0372697721116
 31
0.0
  0
LINE
  5
FA
330
1F
100
AcDbEntity
  8
1
  6
Continuous
 62
     3
100
AcDbLine
 10
5.76388221951083
 20
58.0166631469643
 30
0.0
 11
2.90063356545898
 21
62.9759552904853
 31
0.0
  0
LINE
  5
FB
330
1F
100
AcDbEntity
  8
1
  6
Continuous
 62
     3
100
AcDbLine
 10
-2.90826905890913
 20
53.0372697721116
 30
0.0
 11
-5.747723231809
 21
57.9553486653382
 31
0.0
  0
LINE
  5
FC
330
1F
100
AcDbEntity
  8
1
  6
Continuous
 62
     3
100
AcDbLine
 10
14.151471862577
 20
64.8120753510686
 30
0.0
 11
14.151471862577
 21
53.1019858111897
 31
0.0
  0
LINE
  5
FD
330
1F
100
AcDbEntity
  8
1
  6
Continuous
 62
     3
100
AcDbLine
 10
8.9494308337089
 20
65.848528137424
 30
0.0
 11
20.0325147625199
 21
65.848528137424
 31
0.0
  0
LINE
  5
FE
330
1F
100
AcDbEntity
  8
1
  6
Continuous
 62
     3
100
AcDbLine
 10
21.151471862577
 20
52.6485281374239
 30
0.0
 11
21.151471862577
 21
65.0485281374239
 31
0.0
  0
LINE
  5
FF
330
1F
100
AcDbEntity
  8
1
  6
Continuous
 62
     3
100
AcDbLine
 10
20.351471862577
 20
51.848528137424
 30
0.0
 11
8.9494308337089
 21
51.848528137424
 31
0.0
  0
LINE
  5
100
330
1F
100
AcDbEntity
  8
1
  6
Continuous
 62
     3
100
AcDbLine
 10
28.0
 20
45.0
 30
0.0
 11
28.0
 21
50.8447545391096
 31
0.0
  0
LINE
  5
101
330
1F
100
AcDbEntity
  8
1
  6
Continuous
 62
     3
100
AcDbLine
 10
28.0
 20
45.0
 30
0.0
 11
26.83952595892898
 21
42.99
 31
0.0
  0
LINE
  5
102
330
1F
100
AcDbEntity
  8
1
  6
Continuous
 62
     3
100
AcDbLine
 10
26.839525958929
 20
73.01
 30
0.0
 11
28.0
 21
71.0
 31
0.0
  0
LINE
  5
103
330
1F
100
AcDbEntity
  8
1
  6
Continuous
 62
     3
100
AcDbLine
 10
28.0
 20
71.0
 30
0.0
 11
28.0
 21
66.8523017357383
 31
0.0
  0
LINE
  5
104
330
1F
100
AcDbEntity
  8
1
  6
Continuous
 62
     3
100
AcDbLine
 10
-25.3437877060542
 20
65.5
 30
0.0
 11
-11.7555018143541
 21
65.5
 31
0.0
  0
LINE
  5
105
330
1F
100
AcDbEntity
  8
1
  6
Continuous
 62
     3
100
AcDbLine
 10
-26.5042617471252
 20
71.0
 30
0.0
 11
-26.5042617471252
 21
45.0
 31
0.0
  0
LINE
  5
106
330
1F
100
AcDbEntity
  8
1
  6
Continuous
 62
     3
100
AcDbLine
 10
26.839525958929
 20
73.01
 30
0.0
 11
-10.76735931288067
 21
73.01000000000002
 31
0.0
  0
LINE
  5
107
330
1F
100
AcDbEntity
  8
1
  6
Continuous
 62
     3
100
AcDbLine
 10
-25.34378770605419
 20
73.01
 30
0.0
 11
-26.5042617471252
 21
71.0
 31
0.0
  0
LINE
  5
108
330
1F
100
AcDbEntity
  8
1
  6
Continuous
 62
     3
100
AcDbLine
 10
-26.5042617471252
 20
45.0
 30
0.0
 11
-25.3437877060542
 21
42.99
 31
0.0
  0
LINE
  5
109
330
1F
100
AcDbEntity
  8
1
  6
Continuous
 62
     3
100
AcDbLine
 10
-25.3437877060542
 20
42.99
 30
0.0
 11
26.83952595892898
 21
42.99
 31
0.0
  0
LINE
  5
10A
330
1F
100
AcDbEntity
  8
1
  6
Continuous
 62
     3
100
AcDbLine
 10
-25.3437877060542
 20
50.49999999999999
 30
0.0
 11
-8.01107502652917
 21
50.5
 31
0.0
  0
LINE
  5
10B
330
1F
100
AcDbEntity
  8
1
  6
Continuous
 62
     3
100
AcDbLine
 10
6.31401875168285
 20
50.5
 30
0.0
 11
26.8452994616209
 21
50.5
 31
0.0
  0
LINE
  5
10C
330
1F
100
AcDbEntity
  8
1
  6
DOT_CENTER
 62
     4
100
AcDbLine
 10
-28.8990080778972
 20
58.0
 30
0.0
 11
33.947968160147
 21
58.0
 31
0.0
  0
LINE
  5
10D
330
1F
100
AcDbEntity
  8
1
  6
Continuous
 62
     3
100
AcDbLine
 10
29.664936663786
 20
65.5342020042791
 30
0.0
 11
29.664936663786
 21
52.266167087227
 31
0.0
  0
LINE
  5
10E
330
1F
100
AcDbEntity
  8
1
  6
Continuous
 62
     3
100
AcDbLine
 10
-2.30000000000018
 20
22.7000000000001
 30
0.0
 11
-3.0
 21
22.0
 31
0.0
  0
LINE
  5
10F
330
1F
100
AcDbEntity
  8
1
  6
Continuous
 62
     3
100
AcDbLine
 10
2.37149999999997
 20
22.6285
 30
0.0
 11
3.0
 21
22.0
 31
0.0
  0
LINE
  5
110
330
1F
100
AcDbEntity
  8
1
  6
Continuous
 62
     3
100
AcDbLine
 10
-2.23606797749903
 20
22.0
 30
0.0
 11
-3.0
 21
22.0
 31
0.0
  0
LINE
  5
111
330
1F
100
AcDbEntity
  8
1
  6
Continuous
 62
     3
100
AcDbLine
 10
3.0
 20
22.0
 30
0.0
 11
2.23606797749994
 21
22.0
 31
0.0
  0
LINE
  5
112
330
1F
100
AcDbEntity
  8
1
  6
Continuous
 62
     3
100
AcDbLine
 10
2.29999999999995
 20
22.7000000000001
 30
0.0
 11
2.37149999999997
 21
22.6285
 31
0.0
  0
LINE
  5
113
330
1F
100
AcDbEntity
  8
1
  6
Continuous
 62
     3
100
AcDbLine
 10
2.29999999999995
 20
22.7000000000001
 30
0.0
 11
-2.30000000000018
 21
22.7000000000001
 31
0.0
  0
LINE
  5
114
330
1F
100
AcDbEntity
  8
1
  6
Continuous
 62
     3
100
AcDbLine
 10
-2.23606797749903
 20
22.0
 30
0.0
 11
-3.0
 21
22.0
 31
0.0
  0
LINE
  5
115
330
1F
100
AcDbEntity
  8
1
  6
Continuous
 62
     3
100
AcDbLine
 10
2.37149999999997
 20
22.6285
 30
0.0
 11
2.37149999999997
 21
21.6000000000001
 31
0.0
  0
LINE
  5
116
330
1F
100
AcDbEntity
  8
1
  6
Continuous
 62
     3
100
AcDbLine
 10
2.23606797749994
 20
22.0
 30
0.0
 11
2.01246117975005
 21
21.6000000000001
 31
0.0
  0
LINE
  5
117
330
1F
100
AcDbEntity
  8
1
  6
Continuous
 62
     3
100
AcDbLine
 10
2.23606797749994
 20
22.0
 30
0.0
 11
2.23606797749994
 21
21.6000000000001
 31
0.0
  0
LINE
  5
118
330
1F
100
AcDbEntity
  8
1
  6
Continuous
 62
     3
100
AcDbLine
 10
-2.23606797749903
 20
22.0
 30
0.0
 11
-2.01246117974914
 21
21.6000000000001
 31
0.0
  0
LINE
  5
119
330
1F
100
AcDbEntity
  8
1
  6
Continuous
 62
     3
100
AcDbLine
 10
-2.23606797749903
 20
22.0
 30
0.0
 11
-2.23606797749903
 21
21.6000000000001
 31
0.0
  0
LINE
  5
11A
330
1F
100
AcDbEntity
  8
1
  6
Continuous
 62
     3
100
AcDbLine
 10
-3.0
 20
22.0
 30
0.0
 11
-3.0
 21
21.6
 31
0.0
  0
LINE
  5
11B
330
1F
100
AcDbEntity
  8
1
  6
Continuous
 62
     3
100
AcDbLine
 10
3.0
 20
21.6
 30
0.0
 11
3.0
 21
22.0
 31
0.0
  0
LINE
  5
11C
330
1F
100
AcDbEntity
  8
1
  6
Continuous
 62
     3
100
AcDbLine
 10
-2.37149999999997
 20
21.6000000000001
 30
0.0
 11
-2.37149999999997
 21
22.6285
 31
0.0
  0
LINE
  5
11D
330
1F
100
AcDbEntity
  8
1
  6
Continuous
 62
     3
100
AcDbLine
 10
-26.5
 20
-13.0
 30
0.0
 11
-25.3495612087461
 21
-13.0
 31
0.0
  0
LINE
  5
11E
330
1F
100
AcDbEntity
  8
1
  6
Continuous
 62
     3
100
AcDbLine
 10
28.0
 20
13.0
 30
0.0
 11
28.0
 21
-13.0
 31
0.0
  0
LINE
  5
11F
330
1F
100
AcDbEntity
  8
1
  6
Continuous
 62
     3
100
AcDbLine
 10
28.0
 20
13.0
 30
0.0
 11
26.841037714496
 21
13.0
 31
0.0
  0
LINE
  5
120
330
1F
100
AcDbEntity
  8
1
  6
Continuous
 62
     3
100
AcDbLine
 10
-26.5
 20
-13.0
 30
0.0
 11
-26.5
 21
13.0
 31
0.0
  0
LINE
  5
121
330
1F
100
AcDbEntity
  8
1
  6
Continuous
 62
     3
100
AcDbLine
 10
-11.4465918738881
 20
14.5009021627707
 30
0.0
 11
-11.4465918738881
 21
16.2756846855603
 31
0.0
  0
LINE
  5
122
330
1F
100
AcDbEntity
  8
1
  6
Continuous
 62
     3
100
AcDbLine
 10
-11.1838606478891
 20
16.5000000000001
 30
0.0
 11
-13.9856385079852
 21
16.5000000000001
 31
0.0
  0
LINE
  5
123
330
1F
100
AcDbEntity
  8
1
  6
Continuous
 62
     3
100
AcDbLine
 10
-15.4856385079852
 20
13.0
 30
0.0
 11
-15.4856385079852
 21
15.0000000000001
 31
0.0
  0
LINE
  5
124
330
1F
100
AcDbEntity
  8
1
  6
Continuous
 62
     3
100
AcDbLine
 10
-14.0714249456121
 20
14.0000000000001
 30
0.0
 11
-14.0714249456121
 21
13.0
 31
0.0
  0
LINE
  5
125
330
1F
100
AcDbEntity
  8
1
  6
Continuous
 62
     3
100
AcDbLine
 10
-9.82878425849299
 20
13.0
 30
0.0
 11
-9.82878425849299
 21
14.0009021627707
 31
0.0
  0
LINE
  5
126
330
1F
100
AcDbEntity
  8
1
  6
Continuous
 62
     3
100
AcDbLine
 10
14.151471862577
 20
14.5009021627707
 30
0.0
 11
-13.5714249456121
 21
14.5009021627707
 31
0.0
  0
LINE
  5
127
330
1F
100
AcDbEntity
  8
1
  6
Continuous
 62
     3
100
AcDbLine
 10
14.506302566592
 20
16.9729338586541
 30
0.0
 11
21.151471862577
 21
25.8299057074525
 31
0.0
  0
LINE
  5
128
330
1F
100
AcDbEntity
  8
1
  6
Continuous
 62
     3
100
AcDbLine
 10
21.151471862577
 20
22.4973557796614
 30
0.0
 11
15.716279438833
 21
15.2530939488913
 31
0.0
  0
LINE
  5
129
330
1F
100
AcDbEntity
  8
1
  6
Continuous
 62
     3
100
AcDbLine
 10
30.2115050101988
 20
32.9066886691526
 30
0.0
 11
22.6423582012299
 21
22.818199238647
 31
0.0
  0
LINE
  5
12A
330
1F
100
AcDbEntity
  8
1
  6
Continuous
 62
     3
100
AcDbLine
 10
22.135240762671
 20
28.8073908250341
 30
0.0
 11
27.1701562977289
 21
35.5090038319515
 31
0.0
  0
LINE
  5
12B
330
1F
100
AcDbEntity
  8
1
  6
Continuous
 62
     3
100
AcDbLine
 10
21.151471862577
 20
25.8569511828621
 30
0.0
 11
21.151471862577
 21
22.4973557796614
 31
0.0
  0
LINE
  5
12C
330
1F
100
AcDbEntity
  8
1
  6
Continuous
 62
     3
100
AcDbLine
 10
78.0638031836879
 20
38.0102919733296
 30
0.0
 11
31.6129301572339
 21
33.6965452712925
 31
0.0
  0
LINE
  5
12D
330
1F
100
AcDbEntity
  8
1
  6
Continuous
 62
     3
100
AcDbLine
 10
31.288241352283
 20
37.6834180318589
 30
0.0
 11
77.9494341106958
 21
42.0
 31
0.0
  0
LINE
  5
12E
330
1F
100
AcDbEntity
  8
1
  6
DOT_CENTER
 62
     4
100
AcDbLine
 10
29.7037037947012
 20
0.0
 30
0.0
 11
26.841037714496
 21
0.0
 31
0.0
  0
LINE
  5
12F
330
1F
100
AcDbEntity
  8
1
  6
Continuous
 62
     3
100
AcDbLine
 10
-5.5
 20
13.0
 30
0.0
 11
-5.5
 21
14.0
 31
0.0
  0
LINE
  5
130
330
1F
100
AcDbEntity
  8
1
  6
Continuous
 62
     3
100
AcDbLine
 10
-6.25
 20
14.0
 30
0.0
 11
6.25
 21
14.0
 31
0.0
  0
LINE
  5
131
330
1F
100
AcDbEntity
  8
1
  6
Continuous
 62
     3
100
AcDbLine
 10
-25.3495612087461
 20
13.0
 30
0.0
 11
-26.5
 21
13.0
 31
0.0
  0
LINE
  5
132
330
1F
100
AcDbEntity
  8
1
  6
DOT_CENTER
 62
     4
100
AcDbLine
 10
-25.3495612087461
 20
0.0
 30
0.0
 11
-28.6510769230761
 21
0.0
 31
0.0
  0
LINE
  5
133
330
1F
100
AcDbEntity
  8
1
  6
Continuous
 62
     3
100
AcDbLine
 10
-25.3495612087461
 20
-13.0
 30
0.0
 11
26.841037714496
 21
-13.0
 31
0.0
  0
LINE
  5
134
330
1F
100
AcDbEntity
  8
1
  6
Continuous
 62
     3
100
AcDbLine
 10
26.841037714496
 20
13.0
 30
0.0
 11
-25.3495612087461
 21
13.0
 31
0.0
  0
LINE
  5
135
330
1F
100
AcDbEntity
  8
1
  6
Continuous
 62
     3
100
AcDbLine
 10
26.841037714496
 20
0.0
 30
0.0
 11
-25.3495612087461
 21
0.0
 31
0.0
  0
LINE
  5
136
330
1F
100
AcDbEntity
  8
1
  6
Continuous
 62
     3
100
AcDbLine
 10
26.841037714496
 20
-13.0
 30
0.0
 11
28.0
 21
-13.0
 31
0.0
  0
LINE
  5
137
330
1F
100
AcDbEntity
  8
1
  6
Continuous
 62
     3
100
AcDbLine
 10
-59.5
 20
13.0
 30
0.0
 11
-59.5
 21
14.0
 31
0.0
  0
LINE
  5
138
330
1F
100
AcDbEntity
  8
1
  6
Continuous
 62
     3
100
AcDbLine
 10
-48.4999999999999
 20
13.0
 30
0.0
 11
-48.4999999999999
 21
14.0
 31
0.0
  0
LINE
  5
139
330
1F
100
AcDbEntity
  8
1
  6
Continuous
 62
     3
100
AcDbLine
 10
-47.7499999999999
 20
14.0
 30
0.0
 11
-47.7499999999999
 21
14.5
 31
0.0
  0
LINE
  5
13A
330
1F
100
AcDbEntity
  8
1
  6
Continuous
 62
     3
100
AcDbLine
 10
-60.25
 20
14.0
 30
0.0
 11
-60.25
 21
14.5
 31
0.0
  0
LINE
  5
13B
330
1F
100
AcDbEntity
  8
1
  6
Continuous
 62
     3
100
AcDbLine
 10
-59.839108108108
 20
16.146497502482
 30
0.0
 11
-59.839108108108
 21
14.936614955111
 31
0.0
  0
LINE
  5
13C
330
1F
100
AcDbEntity
  8
1
  6
Continuous
 62
     3
100
AcDbLine
 10
-65.2263346739018
 20
8.80090216277071
 30
0.0
 11
-65.2263346739018
 21
15.7000000000001
 31
0.0
  0
LINE
  5
13D
330
1F
100
AcDbEntity
  8
1
  6
Continuous
 62
     3
100
AcDbLine
 10
-69.4689753610211
 20
8.80090216277071
 30
0.0
 11
-63.8121211115287
 21
8.80090216277071
 31
0.0
  0
LINE
  5
13E
330
1F
100
AcDbEntity
  8
1
  6
Continuous
 62
     3
100
AcDbLine
 10
-64.4263346739018
 20
16.5
 30
0.0
 11
-68.4689753610211
 21
16.5
 31
0.0
  0
LINE
  5
13F
330
1F
100
AcDbEntity
  8
1
  6
Continuous
 62
     3
100
AcDbLine
 10
-63.8121211115287
 20
14.0009021627707
 30
0.0
 11
-63.8121211115287
 21
8.80090216277071
 31
0.0
  0
LINE
  5
140
330
1F
100
AcDbEntity
  8
1
  6
Continuous
 62
     3
100
AcDbLine
 10
-69.4689753610211
 20
15.5
 30
0.0
 11
-69.4689753610211
 21
8.80090216277071
 31
0.0
  0
LINE
  5
141
330
1F
100
AcDbEntity
  8
1
  6
Continuous
 62
     3
100
AcDbLine
 10
-44.1112593634229
 20
16.5
 30
0.0
 11
-64.4263346739018
 21
16.5
 31
0.0
  0
LINE
  5
142
330
1F
100
AcDbEntity
  8
1
  6
Continuous
 62
     3
100
AcDbLine
 10
-43.8485281374237
 20
16.2756846855603
 30
0.0
 11
-43.8485281374237
 21
14.5009021627707
 31
0.0
  0
LINE
  5
143
330
1F
100
AcDbEntity
  8
1
  6
Continuous
 62
     3
100
AcDbLine
 10
-47.848528137424
 20
16.5
 30
0.0
 11
-47.848528137424
 21
22.4973557796614
 31
0.0
  0
LINE
  5
144
330
1F
100
AcDbEntity
  8
1
  6
Continuous
 62
     3
100
AcDbLine
 10
-47.848528137424
 20
22.4973557796614
 30
0.0
 11
-47.848528137424
 21
24.8299057074525
 31
0.0
  0
LINE
  5
145
330
1F
100
AcDbEntity
  8
1
  6
Continuous
 62
     3
100
AcDbLine
 10
-46.848528137424
 20
23.4973557796614
 30
0.0
 11
-46.848528137424
 21
34.0788868714885
 31
0.0
  0
LINE
  5
146
330
1F
100
AcDbEntity
  8
1
  6
Continuous
 62
     3
100
AcDbLine
 10
-60.848528137424
 20
25.8299057074525
 30
0.0
 11
-48.848528137424
 21
25.8299057074525
 31
0.0
  0
LINE
  5
147
330
1F
100
AcDbEntity
  8
1
  6
Continuous
 62
     3
100
AcDbLine
 10
-61.848528137424
 20
24.8299057074525
 30
0.0
 11
-61.848528137424
 21
22.4973557796614
 31
0.0
  0
LINE
  5
148
330
1F
100
AcDbEntity
  8
1
  6
Continuous
 62
     3
100
AcDbLine
 10
-62.8523017357383
 20
35.9504118433137
 30
0.0
 11
-62.8523017357383
 21
23.4973557796614
 31
0.0
  0
LINE
  5
149
330
1F
100
AcDbEntity
  8
1
  6
Continuous
 62
     3
100
AcDbLine
 10
-48.348528137424
 20
37.4504118433137
 30
0.0
 11
-61.3523017357383
 21
37.4504118433137
 31
0.0
  0
LINE
  5
14A
330
1F
100
AcDbEntity
  8
1
  6
Continuous
 62
     3
100
AcDbLine
 10
-61.848528137424
 20
22.4973557796614
 30
0.0
 11
-61.848528137424
 21
16.5
 31
0.0
  0
LINE
  5
14B
330
1F
100
AcDbEntity
  8
1
  6
Continuous
 62
     3
100
AcDbLine
 10
-49.0240447095146
 20
18.0
 30
0.0
 11
-49.0240447095146
 21
18.4898455660406
 31
0.0
  0
LINE
  5
14C
330
1F
100
AcDbEntity
  8
1
  6
Continuous
 62
     3
100
AcDbLine
 10
-58.9683205915878
 20
18.0
 30
0.0
 11
-58.9683205915878
 21
18.4898455660406
 31
0.0
  0
LINE
  5
14D
330
1F
100
AcDbEntity
  8
1
  6
Continuous
 62
     3
100
AcDbLine
 10
-49.0240447095146
 20
18.4898455660406
 30
0.0
 11
-49.0240447095146
 21
21.108350108418
 31
0.0
  0
LINE
  5
14E
330
1F
100
AcDbEntity
  8
1
  6
Continuous
 62
     3
100
AcDbLine
 10
-58.9683205915878
 20
18.4898455660406
 30
0.0
 11
-58.9683205915878
 21
21.108350108418
 31
0.0
  0
LINE
  5
14F
330
1F
100
AcDbEntity
  8
1
  6
Continuous
 62
     3
100
AcDbLine
 10
-54.0
 20
18.4898455660406
 30
0.0
 11
-54.0
 21
21.108350108418
 31
0.0
  0
LINE
  5
150
330
1F
100
AcDbEntity
  8
1
  6
Continuous
 62
     3
100
AcDbLine
 10
-58.9683205915878
 20
21.6
 30
0.0
 11
-49.0240447095146
 21
21.6
 31
0.0
  0
LINE
  5
151
330
1F
100
AcDbEntity
  8
1
  6
Continuous
 62
     3
100
AcDbLine
 10
-58.9683205915878
 20
21.108350108418
 30
0.0
 11
-58.9683205915878
 21
21.6
 31
0.0
  0
LINE
  5
152
330
1F
100
AcDbEntity
  8
1
  6
Continuous
 62
     3
100
AcDbLine
 10
-49.0240447095146
 20
21.108350108418
 30
0.0
 11
-49.0240447095146
 21
21.6
 31
0.0
  0
LINE
  5
153
330
1F
100
AcDbEntity
  8
1
  6
Continuous
 62
     3
100
AcDbLine
 10
-60.0999999999999
 20
18.0
 30
0.0
 11
-47.9
 21
18.0
 31
0.0
  0
LINE
  5
154
330
1F
100
AcDbEntity
  8
1
  6
Continuous
 62
     3
100
AcDbLine
 10
-47.9
 20
16.5
 30
0.0
 11
-47.9
 21
18.0
 31
0.0
  0
LINE
  5
155
330
1F
100
AcDbEntity
  8
1
  6
Continuous
 62
     3
100
AcDbLine
 10
-60.0999999999999
 20
16.5
 30
0.0
 11
-60.0999999999999
 21
18.0
 31
0.0
  0
LINE
  5
156
330
1F
100
AcDbEntity
  8
1
  6
Continuous
 62
     3
100
AcDbLine
 10
-56.0
 20
22.7
 30
0.0
 11
-56.0
 21
21.5990978372293
 31
0.0
  0
LINE
  5
157
330
1F
100
AcDbEntity
  8
1
  6
Continuous
 62
     3
100
AcDbLine
 10
-52.0
 20
22.7
 30
0.0
 11
-56.0
 21
22.7
 31
0.0
  0
LINE
  5
158
330
1F
100
AcDbEntity
  8
1
  6
Continuous
 62
     3
100
AcDbLine
 10
-52.0
 20
21.5990978372293
 30
0.0
 11
-52.0
 21
22.7
 31
0.0
  0
LINE
  5
159
330
1F
100
AcDbEntity
  8
1
  6
Continuous
 62
     3
100
AcDbLine
 10
-52.0
 20
22.0
 30
0.0
 11
-56.0
 21
22.0
 31
0.0
  0
LINE
  5
15A
330
1F
100
AcDbEntity
  8
1
  6
DOT_CENTER
 62
     4
100
AcDbLine
 10
-54.0
 20
24.0
 30
0.0
 11
-54.0
 21
-14.0
 31
0.0
  0
LINE
  5
15B
330
1F
100
AcDbEntity
  8
1
  6
Continuous
 62
     3
100
AcDbLine
 10
-63.3121211115287
 20
14.5009021627707
 30
0.0
 11
-43.8485281374237
 21
14.5009021627707
 31
0.0
  0
LINE
  5
15C
330
1F
100
AcDbEntity
  8
1
  6
Continuous
 62
     3
100
AcDbLine
 10
-60.25
 20
14.0
 30
0.0
 11
-47.7499999999999
 21
14.0
 31
0.0
  0
LINE
  5
15D
102
{ACAD_REACTORS
330
31D
102
}
330
1F
100
AcDbEntity
  8
1
  6
Continuous
 62
     3
100
AcDbLine
 10
67.6106377266103
 20
62.3244073398468
 30
0.0
 11
68.0875004717084
 21
62.3244073398468
 31
0.0
  0
LINE
  5
15E
102
{ACAD_REACTORS
330
31D
102
}
330
1F
100
AcDbEntity
  8
1
  6
Continuous
 62
     3
100
AcDbLine
 10
68.4451475305319
 20
61.9667602810233
 30
0.0
 11
68.4451475305319
 21
61.5930098505858
 31
0.0
  0
LINE
  5
15F
102
{ACAD_REACTORS
330
31D
102
}
330
1F
100
AcDbEntity
  8
1
  6
Continuous
 62
     3
100
AcDbLine
 10
68.0875004717084
 20
59.2844073398468
 30
0.0
 11
67.6106377266103
 21
59.2844073398468
 31
0.0
  0
LINE
  5
160
102
{ACAD_REACTORS
330
31D
102
}
330
1F
100
AcDbEntity
  8
1
  6
Continuous
 62
     3
100
AcDbLine
 10
67.2529906677868
 20
59.6420543986702
 30
0.0
 11
67.2529906677868
 21
61.9667602810233
 31
0.0
  0
LINE
  5
161
102
{ACAD_REACTORS
330
31D
102
}
330
1F
100
AcDbEntity
  8
1
  6
Continuous
 62
     3
100
AcDbLine
 10
67.7894612560222
 20
61.9667602810233
 30
0.0
 11
67.9086769422967
 21
61.9667602810233
 31
0.0
  0
LINE
  5
162
102
{ACAD_REACTORS
330
31D
102
}
330
1F
100
AcDbEntity
  8
1
  6
Continuous
 62
     3
100
AcDbLine
 10
68.0875004717084
 20
61.7879367516116
 30
0.0
 11
68.0875004717084
 21
61.5930098505858
 31
0.0
  0
LINE
  5
163
102
{ACAD_REACTORS
330
31D
102
}
330
1F
100
AcDbEntity
  8
1
  6
Continuous
 62
     3
100
AcDbLine
 10
67.9086769422967
 20
59.6420543986702
 30
0.0
 11
67.7894612560222
 21
59.6420543986702
 31
0.0
  0
LINE
  5
164
102
{ACAD_REACTORS
330
31D
102
}
330
1F
100
AcDbEntity
  8
1
  6
Continuous
 62
     3
100
AcDbLine
 10
67.6106377266103
 20
59.820877928082
 30
0.0
 11
67.6106377266103
 21
60.4467602810233
 31
0.0
  0
LINE
  5
165
102
{ACAD_REACTORS
330
31D
102
}
330
1F
100
AcDbEntity
  8
1
  6
Continuous
 62
     3
100
AcDbLine
 10
68.0875004717084
 20
61.5930098505858
 30
0.0
 11
68.4451475305319
 21
61.5930098505858
 31
0.0
  0
LINE
  5
166
102
{ACAD_REACTORS
330
31D
102
}
330
1F
100
AcDbEntity
  8
1
  6
Continuous
 62
     3
100
AcDbLine
 10
68.4451475305319
 20
60.0444073398467
 30
0.0
 11
68.4451475305319
 21
59.6420543986702
 31
0.0
  0
LINE
  5
167
102
{ACAD_REACTORS
330
31D
102
}
330
1F
100
AcDbEntity
  8
1
  6
Continuous
 62
     3
100
AcDbLine
 10
68.0875004717084
 20
60.0444073398467
 30
0.0
 11
68.0875004717084
 21
59.820877928082
 31
0.0
  0
LINE
  5
168
102
{ACAD_REACTORS
330
31D
102
}
330
1F
100
AcDbEntity
  8
1
  6
Continuous
 62
     3
100
AcDbLine
 10
68.4451475305319
 20
60.625583810435
 30
0.0
 11
68.4451475305319
 21
60.0444073398467
 31
0.0
  0
LINE
  5
169
102
{ACAD_REACTORS
330
31D
102
}
330
1F
100
AcDbEntity
  8
1
  6
Continuous
 62
     3
100
AcDbLine
 10
68.0875004717084
 20
60.4467602810233
 30
0.0
 11
68.0875004717084
 21
60.0444073398467
 31
0.0
  0
LINE
  5
16A
102
{ACAD_REACTORS
330
31D
102
}
330
1F
100
AcDbEntity
  8
1
  6
Continuous
 62
     3
100
AcDbLine
 10
67.7894612560221
 20
60.625583810435
 30
0.0
 11
67.9086769422967
 21
60.625583810435
 31
0.0
  0
LINE
  5
16B
102
{ACAD_REACTORS
330
31D
102
}
330
1F
100
AcDbEntity
  8
1
  6
Continuous
 62
     3
100
AcDbLine
 10
67.6106377266103
 20
61.0133814051392
 30
0.0
 11
67.6106377266103
 21
61.7879367516116
 31
0.0
  0
LINE
  5
16C
102
{ACAD_REACTORS
330
325
102
}
330
1F
100
AcDbEntity
  8
1
  6
Continuous
 62
     3
100
AcDbLine
 10
67.6142618435741
 20
58.1672077938642
 30
0.0
 11
68.0911245886721
 21
58.1672077938642
 31
0.0
  0
LINE
  5
16D
102
{ACAD_REACTORS
330
325
102
}
330
1F
100
AcDbEntity
  8
1
  6
Continuous
 62
     3
100
AcDbLine
 10
68.4487716474957
 20
57.8095607350407
 30
0.0
 11
68.4487716474957
 21
57.1538744605308
 31
0.0
  0
LINE
  5
16E
102
{ACAD_REACTORS
330
325
102
}
330
1F
100
AcDbEntity
  8
1
  6
Continuous
 62
     3
100
AcDbLine
 10
68.0911245886721
 20
55.1272077938642
 30
0.0
 11
67.6142618435741
 21
55.1272077938642
 31
0.0
  0
LINE
  5
16F
102
{ACAD_REACTORS
330
325
102
}
330
1F
100
AcDbEntity
  8
1
  6
Continuous
 62
     3
100
AcDbLine
 10
67.2566147847505
 20
55.4848548526876
 30
0.0
 11
67.2566147847505
 21
56.3193646566093
 31
0.0
  0
LINE
  5
170
102
{ACAD_REACTORS
330
325
102
}
330
1F
100
AcDbEntity
  8
1
  6
Continuous
 62
     3
100
AcDbLine
 10
67.793085372986
 20
57.8095607350407
 30
0.0
 11
67.9123010592605
 21
57.8095607350407
 31
0.0
  0
LINE
  5
171
102
{ACAD_REACTORS
330
325
102
}
330
1F
100
AcDbEntity
  8
1
  6
Continuous
 62
     3
100
AcDbLine
 10
68.0911245886721
 20
57.630737205629
 30
0.0
 11
68.0911245886721
 21
57.1538744605308
 31
0.0
  0
LINE
  5
172
102
{ACAD_REACTORS
330
325
102
}
330
1F
100
AcDbEntity
  8
1
  6
Continuous
 62
     3
100
AcDbLine
 10
67.9123010592605
 20
55.4848548526876
 30
0.0
 11
67.793085372986
 21
55.4848548526876
 31
0.0
  0
LINE
  5
173
102
{ACAD_REACTORS
330
325
102
}
330
1F
100
AcDbEntity
  8
1
  6
Continuous
 62
     3
100
AcDbLine
 10
67.6142618435741
 20
55.6636783820994
 30
0.0
 11
67.6142618435741
 21
56.3193646566093
 31
0.0
  0
LINE
  5
174
102
{ACAD_REACTORS
330
325
102
}
330
1F
100
AcDbEntity
  8
1
  6
Continuous
 62
     3
100
AcDbLine
 10
67.2566147847505
 20
56.3193646566093
 30
0.0
 11
67.6142618435741
 21
56.3193646566093
 31
0.0
  0
LINE
  5
175
102
{ACAD_REACTORS
330
325
102
}
330
1F
100
AcDbEntity
  8
1
  6
Continuous
 62
     3
100
AcDbLine
 10
67.2566147847505
 20
57.2134823036681
 30
0.0
 11
67.6142618435741
 21
57.2134823036681
 31
0.0
  0
LINE
  5
176
102
{ACAD_REACTORS
330
325
102
}
330
1F
100
AcDbEntity
  8
1
  6
Continuous
 62
     3
100
AcDbLine
 10
67.2566147847505
 20
57.2134823036681
 30
0.0
 11
67.2566147847505
 21
57.8095607350407
 31
0.0
  0
LINE
  5
177
102
{ACAD_REACTORS
330
325
102
}
330
1F
100
AcDbEntity
  8
1
  6
Continuous
 62
     3
100
AcDbLine
 10
67.6142618435741
 20
57.2134823036681
 30
0.0
 11
67.6142618435741
 21
57.630737205629
 31
0.0
  0
LINE
  5
178
102
{ACAD_REACTORS
330
325
102
}
330
1F
100
AcDbEntity
  8
1
  6
Continuous
 62
     3
100
AcDbLine
 10
67.9123010592605
 20
56.9750509311191
 30
0.0
 11
67.6738696867113
 21
56.9750509311191
 31
0.0
  0
LINE
  5
179
102
{ACAD_REACTORS
330
325
102
}
330
1F
100
AcDbEntity
  8
1
  6
Continuous
 62
     3
100
AcDbLine
 10
67.6738696867113
 20
56.9750509311191
 30
0.0
 11
67.6738696867113
 21
56.6174038722955
 31
0.0
  0
LINE
  5
17A
102
{ACAD_REACTORS
330
325
102
}
330
1F
100
AcDbEntity
  8
1
  6
Continuous
 62
     3
100
AcDbLine
 10
67.6738696867113
 20
56.6174038722955
 30
0.0
 11
67.9123010592605
 21
56.6174038722955
 31
0.0
  0
LINE
  5
17B
102
{ACAD_REACTORS
330
325
102
}
330
1F
100
AcDbEntity
  8
1
  6
Continuous
 62
     3
100
AcDbLine
 10
68.0911245886721
 20
56.4385803428837
 30
0.0
 11
68.0911245886721
 21
55.6636783820994
 31
0.0
  0
LINE
  5
17C
102
{ACAD_REACTORS
330
325
102
}
330
1F
100
AcDbEntity
  8
1
  6
Continuous
 62
     3
100
AcDbLine
 10
68.4487716474957
 20
56.4385803428837
 30
0.0
 11
68.4487716474957
 21
55.4848548526876
 31
0.0
  0
LINE
  5
17D
102
{ACAD_REACTORS
330
327
102
}
330
1F
100
AcDbEntity
  8
1
  6
Continuous
 62
     3
100
AcDbLine
 10
70.7138696867115
 20
58.1672077938642
 30
0.0
 11
71.1907324318096
 21
58.1672077938642
 31
0.0
  0
LINE
  5
17E
102
{ACAD_REACTORS
330
327
102
}
330
1F
100
AcDbEntity
  8
1
  6
Continuous
 62
     3
100
AcDbLine
 10
71.548379490633
 20
57.8095607350407
 30
0.0
 11
71.548379490633
 21
57.4358103046032
 31
0.0
  0
LINE
  5
17F
102
{ACAD_REACTORS
330
327
102
}
330
1F
100
AcDbEntity
  8
1
  6
Continuous
 62
     3
100
AcDbLine
 10
71.1907324318096
 20
55.1272077938642
 30
0.0
 11
70.7138696867115
 21
55.1272077938642
 31
0.0
  0
LINE
  5
180
102
{ACAD_REACTORS
330
327
102
}
330
1F
100
AcDbEntity
  8
1
  6
Continuous
 62
     3
100
AcDbLine
 10
70.356222627888
 20
55.4848548526876
 30
0.0
 11
70.356222627888
 21
57.8095607350407
 31
0.0
  0
LINE
  5
181
102
{ACAD_REACTORS
330
327
102
}
330
1F
100
AcDbEntity
  8
1
  6
Continuous
 62
     3
100
AcDbLine
 10
70.8926932161233
 20
57.8095607350407
 30
0.0
 11
71.0119089023979
 21
57.8095607350407
 31
0.0
  0
LINE
  5
182
102
{ACAD_REACTORS
330
327
102
}
330
1F
100
AcDbEntity
  8
1
  6
Continuous
 62
     3
100
AcDbLine
 10
71.1907324318096
 20
57.630737205629
 30
0.0
 11
71.1907324318096
 21
57.4358103046032
 31
0.0
  0
LINE
  5
183
102
{ACAD_REACTORS
330
327
102
}
330
1F
100
AcDbEntity
  8
1
  6
Continuous
 62
     3
100
AcDbLine
 10
71.0119089023979
 20
55.4848548526876
 30
0.0
 11
70.8926932161233
 21
55.4848548526876
 31
0.0
  0
LINE
  5
184
102
{ACAD_REACTORS
330
327
102
}
330
1F
100
AcDbEntity
  8
1
  6
Continuous
 62
     3
100
AcDbLine
 10
70.7138696867115
 20
55.6636783820994
 30
0.0
 11
70.7138696867115
 21
56.2895607350407
 31
0.0
  0
LINE
  5
185
102
{ACAD_REACTORS
330
327
102
}
330
1F
100
AcDbEntity
  8
1
  6
Continuous
 62
     3
100
AcDbLine
 10
71.1907324318096
 20
57.4358103046032
 30
0.0
 11
71.548379490633
 21
57.4358103046032
 31
0.0
  0
LINE
  5
186
102
{ACAD_REACTORS
330
327
102
}
330
1F
100
AcDbEntity
  8
1
  6
Continuous
 62
     3
100
AcDbLine
 10
71.548379490633
 20
55.8872077938642
 30
0.0
 11
71.548379490633
 21
55.4848548526876
 31
0.0
  0
LINE
  5
187
102
{ACAD_REACTORS
330
327
102
}
330
1F
100
AcDbEntity
  8
1
  6
Continuous
 62
     3
100
AcDbLine
 10
71.1907324318096
 20
55.8872077938642
 30
0.0
 11
71.1907324318096
 21
55.6636783820994
 31
0.0
  0
LINE
  5
188
102
{ACAD_REACTORS
330
327
102
}
330
1F
100
AcDbEntity
  8
1
  6
Continuous
 62
     3
100
AcDbLine
 10
71.548379490633
 20
56.4683842644524
 30
0.0
 11
71.548379490633
 21
55.8872077938642
 31
0.0
  0
LINE
  5
189
102
{ACAD_REACTORS
330
327
102
}
330
1F
100
AcDbEntity
  8
1
  6
Continuous
 62
     3
100
AcDbLine
 10
71.1907324318096
 20
56.2895607350407
 30
0.0
 11
71.1907324318096
 21
55.8872077938642
 31
0.0
  0
LINE
  5
18A
102
{ACAD_REACTORS
330
327
102
}
330
1F
100
AcDbEntity
  8
1
  6
Continuous
 62
     3
100
AcDbLine
 10
70.8926932161232
 20
56.4683842644524
 30
0.0
 11
71.0119089023979
 21
56.4683842644524
 31
0.0
  0
LINE
  5
18B
102
{ACAD_REACTORS
330
327
102
}
330
1F
100
AcDbEntity
  8
1
  6
Continuous
 62
     3
100
AcDbLine
 10
70.7138696867115
 20
56.8561818591566
 30
0.0
 11
70.7138696867115
 21
57.630737205629
 31
0.0
  0
LINE
  5
18C
102
{ACAD_REACTORS
330
326
102
}
330
1F
100
AcDbEntity
  8
1
  6
Continuous
 62
     3
100
AcDbLine
 10
69.4020135898937
 20
55.1272077938642
 30
0.0
 11
69.4020135898937
 21
57.3246463041357
 31
0.0
  0
LINE
  5
18D
102
{ACAD_REACTORS
330
326
102
}
330
1F
100
AcDbEntity
  8
1
  6
Continuous
 62
     3
100
AcDbLine
 10
69.7596606487173
 20
55.1272077938642
 30
0.0
 11
69.7596606487173
 21
58.1672077938642
 31
0.0
  0
LINE
  5
18E
102
{ACAD_REACTORS
330
326
102
}
330
1F
100
AcDbEntity
  8
1
  6
Continuous
 62
     3
100
AcDbLine
 10
69.7596606487173
 20
58.1672077938642
 30
0.0
 11
69.4020135898937
 21
58.1672077938642
 31
0.0
  0
LINE
  5
18F
102
{ACAD_REACTORS
330
326
102
}
330
1F
100
AcDbEntity
  8
1
  6
Continuous
 62
     3
100
AcDbLine
 10
69.0443665310703
 20
57.3246463041357
 30
0.0
 11
69.4020135898937
 21
57.3246463041357
 31
0.0
  0
LINE
  5
190
102
{ACAD_REACTORS
330
326
102
}
330
1F
100
AcDbEntity
  8
1
  6
Continuous
 62
     3
100
AcDbLine
 10
69.0443665310703
 20
57.3246463041357
 30
0.0
 11
69.0443665310703
 21
57.745927049
 31
0.0
  0
LINE
  5
191
102
{ACAD_REACTORS
330
326
102
}
330
1F
100
AcDbEntity
  8
1
  6
Continuous
 62
     3
100
AcDbLine
 10
69.4020135898937
 20
55.1272077938642
 30
0.0
 11
69.7596606487173
 21
55.1272077938642
 31
0.0
  0
LINE
  5
192
102
{ACAD_REACTORS
330
324
102
}
330
1F
100
AcDbEntity
  8
1
  6
Continuous
 62
     3
100
AcDbLine
 10
65.5137046485575
 20
58.1672077938642
 30
0.0
 11
65.9905673936555
 21
58.1672077938642
 31
0.0
  0
LINE
  5
193
102
{ACAD_REACTORS
330
324
102
}
330
1F
100
AcDbEntity
  8
1
  6
Continuous
 62
     3
100
AcDbLine
 10
65.1560575897339
 20
57.2321679135083
 30
0.0
 11
65.1560575897339
 21
57.8095607350407
 31
0.0
  0
LINE
  5
194
102
{ACAD_REACTORS
330
324
102
}
330
1F
100
AcDbEntity
  8
1
  6
Continuous
 62
     3
100
AcDbLine
 10
65.9905673936555
 20
55.1272077938642
 30
0.0
 11
65.5137046485575
 21
55.1272077938642
 31
0.0
  0
LINE
  5
195
102
{ACAD_REACTORS
330
324
102
}
330
1F
100
AcDbEntity
  8
1
  6
Continuous
 62
     3
100
AcDbLine
 10
65.1560575897339
 20
55.4848548526876
 30
0.0
 11
65.1560575897339
 21
56.3193646566093
 31
0.0
  0
LINE
  5
196
102
{ACAD_REACTORS
330
324
102
}
330
1F
100
AcDbEntity
  8
1
  6
Continuous
 62
     3
100
AcDbLine
 10
65.6925281779693
 20
57.8095607350407
 30
0.0
 11
65.8117438642439
 21
57.8095607350407
 31
0.0
  0
LINE
  5
197
102
{ACAD_REACTORS
330
324
102
}
330
1F
100
AcDbEntity
  8
1
  6
Continuous
 62
     3
100
AcDbLine
 10
65.5137046485575
 20
57.2302429927207
 30
0.0
 11
65.5137046485575
 21
57.630737205629
 31
0.0
  0
LINE
  5
198
102
{ACAD_REACTORS
330
324
102
}
330
1F
100
AcDbEntity
  8
1
  6
Continuous
 62
     3
100
AcDbLine
 10
65.8117438642439
 20
55.4848548526876
 30
0.0
 11
65.6925281779693
 21
55.4848548526876
 31
0.0
  0
LINE
  5
199
102
{ACAD_REACTORS
330
324
102
}
330
1F
100
AcDbEntity
  8
1
  6
Continuous
 62
     3
100
AcDbLine
 10
65.5137046485575
 20
55.6636783820994
 30
0.0
 11
65.5137046485575
 21
56.3193646566093
 31
0.0
  0
LINE
  5
19A
102
{ACAD_REACTORS
330
324
102
}
330
1F
100
AcDbEntity
  8
1
  6
Continuous
 62
     3
100
AcDbLine
 10
65.1560575897339
 20
56.3193646566093
 30
0.0
 11
65.5137046485575
 21
56.3193646566093
 31
0.0
  0
LINE
  5
19B
102
{ACAD_REACTORS
330
324
102
}
330
1F
100
AcDbEntity
  8
1
  6
Continuous
 62
     3
100
AcDbLine
 10
65.9905673936555
 20
57.2134823036681
 30
0.0
 11
66.3482144524791
 21
57.2134823036681
 31
0.0
  0
LINE
  5
19C
102
{ACAD_REACTORS
330
324
102
}
330
1F
100
AcDbEntity
  8
1
  6
Continuous
 62
     3
100
AcDbLine
 10
66.3482144524791
 20
57.8095607350407
 30
0.0
 11
66.3482144524791
 21
57.2134823036681
 31
0.0
  0
LINE
  5
19D
102
{ACAD_REACTORS
330
324
102
}
330
1F
100
AcDbEntity
  8
1
  6
Continuous
 62
     3
100
AcDbLine
 10
65.9905673936555
 20
57.630737205629
 30
0.0
 11
65.9905673936555
 21
57.2134823036681
 31
0.0
  0
LINE
  5
19E
102
{ACAD_REACTORS
330
324
102
}
330
1F
100
AcDbEntity
  8
1
  6
Continuous
 62
     3
100
AcDbLine
 10
65.9905673936555
 20
56.3026039675566
 30
0.0
 11
65.9905673936555
 21
55.6636783820994
 31
0.0
  0
LINE
  5
19F
102
{ACAD_REACTORS
330
324
102
}
330
1F
100
AcDbEntity
  8
1
  6
Continuous
 62
     3
100
AcDbLine
 10
66.3482144524791
 20
56.300679046769
 30
0.0
 11
66.3482144524791
 21
55.4848548526876
 31
0.0
  0
LINE
  5
1A0
102
{ACAD_REACTORS
330
324
102
}
330
1F
100
AcDbEntity
  8
1
  6
Continuous
 62
     3
100
AcDbLine
 10
65.5815504982979
 20
57.1006347227207
 30
0.0
 11
66.1277154408226
 21
56.7219059242692
 31
0.0
  0
LINE
  5
1A1
102
{ACAD_REACTORS
330
324
102
}
330
1F
100
AcDbEntity
  8
1
  6
Continuous
 62
     3
100
AcDbLine
 10
65.3765566013903
 20
56.8109410360082
 30
0.0
 11
65.922721543915
 21
56.4322122375567
 31
0.0
  0
LINE
  5
1A2
102
{ACAD_REACTORS
330
322
102
}
330
1F
100
AcDbEntity
  8
1
  6
Continuous
 62
     3
100
AcDbLine
 10
62.4196486634019
 20
58.1672077938642
 30
0.0
 11
62.8965114085
 21
58.1672077938642
 31
0.0
  0
LINE
  5
1A3
102
{ACAD_REACTORS
330
322
102
}
330
1F
100
AcDbEntity
  8
1
  6
Continuous
 62
     3
100
AcDbLine
 10
62.0620016045783
 20
57.2321679135083
 30
0.0
 11
62.0620016045783
 21
57.8095607350407
 31
0.0
  0
LINE
  5
1A4
102
{ACAD_REACTORS
330
322
102
}
330
1F
100
AcDbEntity
  8
1
  6
Continuous
 62
     3
100
AcDbLine
 10
62.8965114085
 20
55.1272077938642
 30
0.0
 11
62.4196486634019
 21
55.1272077938642
 31
0.0
  0
LINE
  5
1A5
102
{ACAD_REACTORS
330
322
102
}
330
1F
100
AcDbEntity
  8
1
  6
Continuous
 62
     3
100
AcDbLine
 10
62.0620016045783
 20
55.4848548526876
 30
0.0
 11
62.0620016045783
 21
56.3193646566093
 31
0.0
  0
LINE
  5
1A6
102
{ACAD_REACTORS
330
322
102
}
330
1F
100
AcDbEntity
  8
1
  6
Continuous
 62
     3
100
AcDbLine
 10
62.5984721928138
 20
57.8095607350407
 30
0.0
 11
62.7176878790884
 21
57.8095607350407
 31
0.0
  0
LINE
  5
1A7
102
{ACAD_REACTORS
330
322
102
}
330
1F
100
AcDbEntity
  8
1
  6
Continuous
 62
     3
100
AcDbLine
 10
62.4196486634019
 20
57.2302429927207
 30
0.0
 11
62.4196486634019
 21
57.630737205629
 31
0.0
  0
LINE
  5
1A8
102
{ACAD_REACTORS
330
322
102
}
330
1F
100
AcDbEntity
  8
1
  6
Continuous
 62
     3
100
AcDbLine
 10
62.7176878790884
 20
55.4848548526876
 30
0.0
 11
62.5984721928138
 21
55.4848548526876
 31
0.0
  0
LINE
  5
1A9
102
{ACAD_REACTORS
330
322
102
}
330
1F
100
AcDbEntity
  8
1
  6
Continuous
 62
     3
100
AcDbLine
 10
62.4196486634019
 20
55.6636783820994
 30
0.0
 11
62.4196486634019
 21
56.3193646566093
 31
0.0
  0
LINE
  5
1AA
102
{ACAD_REACTORS
330
322
102
}
330
1F
100
AcDbEntity
  8
1
  6
Continuous
 62
     3
100
AcDbLine
 10
62.0620016045783
 20
56.3193646566093
 30
0.0
 11
62.4196486634019
 21
56.3193646566093
 31
0.0
  0
LINE
  5
1AB
102
{ACAD_REACTORS
330
322
102
}
330
1F
100
AcDbEntity
  8
1
  6
Continuous
 62
     3
100
AcDbLine
 10
62.8965114085
 20
57.2134823036681
 30
0.0
 11
63.2541584673236
 21
57.2134823036681
 31
0.0
  0
LINE
  5
1AC
102
{ACAD_REACTORS
330
322
102
}
330
1F
100
AcDbEntity
  8
1
  6
Continuous
 62
     3
100
AcDbLine
 10
63.2541584673236
 20
57.8095607350407
 30
0.0
 11
63.2541584673236
 21
57.2134823036681
 31
0.0
  0
LINE
  5
1AD
102
{ACAD_REACTORS
330
322
102
}
330
1F
100
AcDbEntity
  8
1
  6
Continuous
 62
     3
100
AcDbLine
 10
62.8965114085
 20
57.630737205629
 30
0.0
 11
62.8965114085
 21
57.2134823036681
 31
0.0
  0
LINE
  5
1AE
102
{ACAD_REACTORS
330
322
102
}
330
1F
100
AcDbEntity
  8
1
  6
Continuous
 62
     3
100
AcDbLine
 10
62.8965114085
 20
56.3026039675566
 30
0.0
 11
62.8965114085
 21
55.6636783820994
 31
0.0
  0
LINE
  5
1AF
102
{ACAD_REACTORS
330
322
102
}
330
1F
100
AcDbEntity
  8
1
  6
Continuous
 62
     3
100
AcDbLine
 10
63.2541584673236
 20
56.300679046769
 30
0.0
 11
63.2541584673236
 21
55.4848548526876
 31
0.0
  0
LINE
  5
1B0
102
{ACAD_REACTORS
330
322
102
}
330
1F
100
AcDbEntity
  8
1
  6
Continuous
 62
     3
100
AcDbLine
 10
62.4874945131424
 20
57.1006347227207
 30
0.0
 11
63.0336594556671
 21
56.7219059242692
 31
0.0
  0
LINE
  5
1B1
102
{ACAD_REACTORS
330
322
102
}
330
1F
100
AcDbEntity
  8
1
  6
Continuous
 62
     3
100
AcDbLine
 10
62.2825006162348
 20
56.8109410360082
 30
0.0
 11
62.8286655587596
 21
56.4322122375567
 31
0.0
  0
LINE
  5
1B2
102
{ACAD_REACTORS
330
323
102
}
330
1F
100
AcDbEntity
  8
1
  6
Continuous
 62
     3
100
AcDbLine
 10
63.6090295971561
 20
55.4848548526876
 30
0.0
 11
63.6090295971561
 21
58.1672077938642
 31
0.0
  0
LINE
  5
1B3
102
{ACAD_REACTORS
330
323
102
}
330
1F
100
AcDbEntity
  8
1
  6
Continuous
 62
     3
100
AcDbLine
 10
64.2647158716661
 20
55.4848548526876
 30
0.0
 11
64.1455001853915
 21
55.4848548526876
 31
0.0
  0
LINE
  5
1B4
102
{ACAD_REACTORS
330
323
102
}
330
1F
100
AcDbEntity
  8
1
  6
Continuous
 62
     3
100
AcDbLine
 10
63.9666766559797
 20
55.6636783820994
 30
0.0
 11
63.9666766559796
 21
58.1672077938642
 31
0.0
  0
LINE
  5
1B5
102
{ACAD_REACTORS
330
323
102
}
330
1F
100
AcDbEntity
  8
1
  6
Continuous
 62
     3
100
AcDbLine
 10
63.6090295971561
 20
58.1672077938642
 30
0.0
 11
63.9666766559796
 21
58.1672077938642
 31
0.0
  0
LINE
  5
1B6
102
{ACAD_REACTORS
330
323
102
}
330
1F
100
AcDbEntity
  8
1
  6
Continuous
 62
     3
100
AcDbLine
 10
64.4435394010777
 20
58.1504471048116
 30
0.0
 11
64.4435394010777
 21
55.6636783820994
 31
0.0
  0
LINE
  5
1B7
102
{ACAD_REACTORS
330
323
102
}
330
1F
100
AcDbEntity
  8
1
  6
Continuous
 62
     3
100
AcDbLine
 10
64.4435394010777
 20
55.1272077938642
 30
0.0
 11
63.9666766559797
 21
55.1272077938642
 31
0.0
  0
LINE
  5
1B8
102
{ACAD_REACTORS
330
323
102
}
330
1F
100
AcDbEntity
  8
1
  6
Continuous
 62
     3
100
AcDbLine
 10
64.4435394010777
 20
58.1504471048116
 30
0.0
 11
64.8011864599014
 21
58.1504471048116
 31
0.0
  0
LINE
  5
1B9
102
{ACAD_REACTORS
330
323
102
}
330
1F
100
AcDbEntity
  8
1
  6
Continuous
 62
     3
100
AcDbLine
 10
64.8011864599014
 20
58.1504471048116
 30
0.0
 11
64.8011864599014
 21
55.4848548526876
 31
0.0
  0
LINE
  5
1BA
102
{ACAD_REACTORS
330
329
102
}
330
1F
100
AcDbEntity
  8
1
  6
Continuous
 62
     3
100
AcDbLine
 10
59.1806062761293
 20
57.835192443047
 30
0.0
 11
59.8066467081295
 21
57.835192443047
 31
0.0
  0
LINE
  5
1BB
102
{ACAD_REACTORS
330
32B
102
}
330
1F
100
AcDbEntity
  8
1
  6
Continuous
 62
     3
100
AcDbLine
 10
54.2172923042693
 20
59.5372733070468
 30
0.0
 11
55.298481110236
 21
59.5372733070468
 31
0.0
  0
LINE
  5
1BC
102
{ACAD_REACTORS
330
32B
102
}
330
1F
100
AcDbEntity
  8
1
  6
Continuous
 62
     3
100
AcDbLine
 10
53.7417928879343
 20
58.4734727670467
 30
0.0
 11
54.2172923042693
 21
59.5372733070468
 31
0.0
  0
LINE
  5
1BD
102
{ACAD_REACTORS
330
32B
102
}
330
1F
100
AcDbEntity
  8
1
  6
Continuous
 62
     3
100
AcDbLine
 10
53.7417928879343
 20
58.4734727670467
 30
0.0
 11
53.2286301514953
 21
59.5372733070468
 31
0.0
  0
LINE
  5
1BE
102
{ACAD_REACTORS
330
32B
102
}
330
1F
100
AcDbEntity
  8
1
  6
Continuous
 62
     3
100
AcDbLine
 10
53.3191283590439
 20
57.835192443047
 30
0.0
 11
52.6477037494359
 21
59.069201069447
 31
0.0
  0
LINE
  5
1BF
102
{ACAD_REACTORS
330
32B
102
}
330
1F
100
AcDbEntity
  8
1
  6
Continuous
 62
     3
100
AcDbLine
 10
53.9504864170525
 20
57.835192443047
 30
0.0
 11
53.3191283590439
 21
57.835192443047
 31
0.0
  0
LINE
  5
1C0
102
{ACAD_REACTORS
330
32B
102
}
330
1F
100
AcDbEntity
  8
1
  6
Continuous
 62
     3
100
AcDbLine
 10
54.577440678236
 20
59.069201069447
 30
0.0
 11
53.9504864170525
 21
57.835192443047
 31
0.0
  0
LINE
  5
1C1
102
{ACAD_REACTORS
330
32C
102
}
330
1F
100
AcDbEntity
  8
1
  6
Continuous
 62
     3
100
AcDbLine
 10
49.4078039127008
 20
58.1756086158469
 30
0.0
 11
49.1778339430133
 21
57.835192443047
 31
0.0
  0
LINE
  5
1C2
102
{ACAD_REACTORS
330
32C
102
}
330
1F
100
AcDbEntity
  8
1
  6
Continuous
 62
     3
100
AcDbLine
 10
49.6090276361774
 20
58.4734727670467
 30
0.0
 11
50.1803115309932
 21
59.319123515793
 31
0.0
  0
LINE
  5
1C3
102
{ACAD_REACTORS
330
32D
102
}
330
1F
100
AcDbEntity
  8
1
  6
Continuous
 62
     3
100
AcDbLine
 10
46.4752646606361
 20
58.5334727670467
 30
0.0
 11
46.4752646606361
 21
57.835192443047
 31
0.0
  0
LINE
  5
1C4
102
{ACAD_REACTORS
330
32D
102
}
330
1F
100
AcDbEntity
  8
1
  6
Continuous
 62
     3
100
AcDbLine
 10
46.4752646606361
 20
59.5372733070468
 30
0.0
 11
46.4752646606361
 21
58.8389929830469
 31
0.0
  0
LINE
  5
1C5
102
{ACAD_REACTORS
330
32D
102
}
330
1F
100
AcDbEntity
  8
1
  6
Continuous
 62
     3
100
AcDbLine
 10
47.636409135836
 20
58.8389929830469
 30
0.0
 11
46.4752646606361
 21
58.8389929830469
 31
0.0
  0
LINE
  5
1C6
102
{ACAD_REACTORS
330
32D
102
}
330
1F
100
AcDbEntity
  8
1
  6
Continuous
 62
     3
100
AcDbLine
 10
47.636409135836
 20
58.8389929830469
 30
0.0
 11
47.636409135836
 21
59.5372733070468
 31
0.0
  0
LINE
  5
1C7
102
{ACAD_REACTORS
330
32D
102
}
330
1F
100
AcDbEntity
  8
1
  6
Continuous
 62
     3
100
AcDbLine
 10
47.636409135836
 20
58.5334727670467
 30
0.0
 11
46.4752646606361
 21
58.5334727670467
 31
0.0
  0
LINE
  5
1C8
102
{ACAD_REACTORS
330
32D
102
}
330
1F
100
AcDbEntity
  8
1
  6
Continuous
 62
     3
100
AcDbLine
 10
47.636409135836
 20
57.835192443047
 30
0.0
 11
47.636409135836
 21
58.5334727670467
 31
0.0
  0
LINE
  5
1C9
102
{ACAD_REACTORS
330
32D
102
}
330
1F
100
AcDbEntity
  8
1
  6
Continuous
 62
     3
100
AcDbLine
 10
47.636409135836
 20
57.835192443047
 30
0.0
 11
48.3749495678359
 21
57.835192443047
 31
0.0
  0
LINE
  5
1CA
102
{ACAD_REACTORS
330
32D
102
}
330
1F
100
AcDbEntity
  8
1
  6
Continuous
 62
     3
100
AcDbLine
 10
46.4752646606361
 20
57.835192443047
 30
0.0
 11
45.736724228636
 21
57.835192443047
 31
0.0
  0
LINE
  5
1CB
102
{ACAD_REACTORS
330
32D
102
}
330
1F
100
AcDbEntity
  8
1
  6
Continuous
 62
     3
100
AcDbLine
 10
46.4752646606361
 20
59.5372733070468
 30
0.0
 11
45.736724228636
 21
59.5372733070468
 31
0.0
  0
LINE
  5
1CC
102
{ACAD_REACTORS
330
32D
102
}
330
1F
100
AcDbEntity
  8
1
  6
Continuous
 62
     3
100
AcDbLine
 10
47.636409135836
 20
59.5372733070468
 30
0.0
 11
48.3749495678359
 21
59.5372733070468
 31
0.0
  0
LINE
  5
1CD
102
{ACAD_REACTORS
330
32F
102
}
330
1F
100
AcDbEntity
  8
1
  6
Continuous
 62
     3
100
AcDbLine
 10
41.493379490633
 20
60.5272077938642
 30
0.0
 11
42.6433794906329
 21
60.5272077938642
 31
0.0
  0
LINE
  5
1CE
102
{ACAD_REACTORS
330
32F
102
}
330
1F
100
AcDbEntity
  8
1
  6
Continuous
 62
     3
100
AcDbLine
 10
41.493379490633
 20
56.9272077938642
 30
0.0
 11
42.6433794906329
 21
56.9272077938642
 31
0.0
  0
LINE
  5
1CF
102
{ACAD_REACTORS
330
32F
102
}
330
1F
100
AcDbEntity
  8
1
  6
Continuous
 62
     3
100
AcDbLine
 10
41.493379490633
 20
56.9272077938642
 30
0.0
 11
41.493379490633
 21
60.5272077938642
 31
0.0
  0
LINE
  5
1D0
102
{ACAD_REACTORS
330
32F
102
}
330
1F
100
AcDbEntity
  8
1
  6
Continuous
 62
     3
100
AcDbLine
 10
42.6433794906329
 20
56.9272077938642
 30
0.0
 11
42.6433794906329
 21
60.5272077938642
 31
0.0
  0
LINE
  5
1D1
102
{ACAD_REACTORS
330
330
102
}
330
1F
100
AcDbEntity
  8
1
  6
Continuous
 62
     3
100
AcDbLine
 10
40.698379490633
 20
60.5272077938642
 30
0.0
 11
40.698379490633
 21
56.9272077938642
 31
0.0
  0
LINE
  5
1D2
102
{ACAD_REACTORS
330
32E
102
}
330
1F
100
AcDbEntity
  8
1
  6
Continuous
 62
     3
100
AcDbLine
 10
43.4383794906329
 20
60.5272077938642
 30
0.0
 11
43.4383794906329
 21
56.9272077938642
 31
0.0
  0
LINE
  5
1D3
102
{ACAD_REACTORS
330
32B
102
}
330
1F
100
AcDbEntity
  8
1
  6
Continuous
 62
     3
100
AcDbLine
 10
52.6477037494359
 20
59.069201069447
 30
0.0
 11
52.6477037494359
 21
57.835192443047
 31
0.0
  0
LINE
  5
1D4
102
{ACAD_REACTORS
330
32B
102
}
330
1F
100
AcDbEntity
  8
1
  6
Continuous
 62
     3
100
AcDbLine
 10
54.577440678236
 20
57.835192443047
 30
0.0
 11
55.298481110236
 21
57.835192443047
 31
0.0
  0
LINE
  5
1D5
102
{ACAD_REACTORS
330
32B
102
}
330
1F
100
AcDbEntity
  8
1
  6
Continuous
 62
     3
100
AcDbLine
 10
54.577440678236
 20
59.069201069447
 30
0.0
 11
54.577440678236
 21
57.835192443047
 31
0.0
  0
LINE
  5
1D6
102
{ACAD_REACTORS
330
32E
102
}
330
1F
100
AcDbEntity
  8
1
  6
Continuous
 62
     3
100
AcDbLine
 10
44.588379490633
 20
56.9272077938642
 30
0.0
 11
43.4383794906329
 21
56.9272077938642
 31
0.0
  0
LINE
  5
1D7
102
{ACAD_REACTORS
330
32E
102
}
330
1F
100
AcDbEntity
  8
1
  6
Continuous
 62
     3
100
AcDbLine
 10
44.588379490633
 20
60.5272077938642
 30
0.0
 11
43.4383794906329
 21
60.5272077938642
 31
0.0
  0
LINE
  5
1D8
102
{ACAD_REACTORS
330
32C
102
}
330
1F
100
AcDbEntity
  8
1
  6
Continuous
 62
     3
100
AcDbLine
 10
48.6978137190361
 20
57.835192443047
 30
0.0
 11
49.1778339430133
 21
57.835192443047
 31
0.0
  0
LINE
  5
1D9
102
{ACAD_REACTORS
330
32C
102
}
330
1F
100
AcDbEntity
  8
1
  6
Continuous
 62
     3
100
AcDbLine
 10
49.8041662806359
 20
59.5372733070468
 30
0.0
 11
50.7787671838771
 21
59.5372733070468
 31
0.0
  0
LINE
  5
1DA
102
{ACAD_REACTORS
330
32C
102
}
330
1F
100
AcDbEntity
  8
1
  6
Continuous
 62
     3
100
AcDbLine
 10
48.6978137190361
 20
57.835192443047
 30
0.0
 11
49.8041662806359
 21
59.5372733070468
 31
0.0
  0
LINE
  5
1DB
102
{ACAD_REACTORS
330
32D
102
}
330
1F
100
AcDbEntity
  8
1
  6
Continuous
 62
     3
100
AcDbLine
 10
48.3749495678359
 20
59.5372733070468
 30
0.0
 11
48.3749495678359
 21
57.835192443047
 31
0.0
  0
LINE
  5
1DC
102
{ACAD_REACTORS
330
32D
102
}
330
1F
100
AcDbEntity
  8
1
  6
Continuous
 62
     3
100
AcDbLine
 10
45.736724228636
 20
59.5372733070468
 30
0.0
 11
45.736724228636
 21
57.835192443047
 31
0.0
  0
LINE
  5
1DD
102
{ACAD_REACTORS
330
330
102
}
330
1F
100
AcDbEntity
  8
1
  6
Continuous
 62
     3
100
AcDbLine
 10
39.548379490633
 20
56.9272077938642
 30
0.0
 11
40.698379490633
 21
56.9272077938642
 31
0.0
  0
LINE
  5
1DE
102
{ACAD_REACTORS
330
330
102
}
330
1F
100
AcDbEntity
  8
1
  6
Continuous
 62
     3
100
AcDbLine
 10
39.548379490633
 20
60.5272077938642
 30
0.0
 11
40.698379490633
 21
60.5272077938642
 31
0.0
  0
LINE
  5
1DF
102
{ACAD_REACTORS
330
330
102
}
330
1F
100
AcDbEntity
  8
1
  6
Continuous
 62
     3
100
AcDbLine
 10
39.548379490633
 20
60.5272077938642
 30
0.0
 11
39.548379490633
 21
56.9272077938642
 31
0.0
  0
LINE
  5
1E0
102
{ACAD_REACTORS
330
32E
102
}
330
1F
100
AcDbEntity
  8
1
  6
Continuous
 62
     3
100
AcDbLine
 10
44.588379490633
 20
60.5272077938642
 30
0.0
 11
44.588379490633
 21
56.9272077938642
 31
0.0
  0
LINE
  5
1E1
102
{ACAD_REACTORS
330
32B
102
}
330
1F
100
AcDbEntity
  8
1
  6
Continuous
 62
     3
100
AcDbLine
 10
52.1819754470361
 20
59.5372733070468
 30
0.0
 11
52.1819754470361
 21
57.835192443047
 31
0.0
  0
LINE
  5
1E2
102
{ACAD_REACTORS
330
32B
102
}
330
1F
100
AcDbEntity
  8
1
  6
Continuous
 62
     3
100
AcDbLine
 10
52.1819754470361
 20
59.5372733070468
 30
0.0
 11
53.2286301514953
 21
59.5372733070468
 31
0.0
  0
LINE
  5
1E3
102
{ACAD_REACTORS
330
32B
102
}
330
1F
100
AcDbEntity
  8
1
  6
Continuous
 62
     3
100
AcDbLine
 10
52.1819754470361
 20
57.835192443047
 30
0.0
 11
52.6477037494359
 21
57.835192443047
 31
0.0
  0
LINE
  5
1E4
102
{ACAD_REACTORS
330
32C
102
}
330
1F
100
AcDbEntity
  8
1
  6
Continuous
 62
     3
100
AcDbLine
 10
51.0719215404109
 20
57.835192443047
 30
0.0
 11
51.8000157022772
 21
57.835192443047
 31
0.0
  0
LINE
  5
1E5
102
{ACAD_REACTORS
330
32C
102
}
330
1F
100
AcDbEntity
  8
1
  6
Continuous
 62
     3
100
AcDbLine
 10
51.0719215404109
 20
57.835192443047
 30
0.0
 11
50.8673847714125
 21
58.1756086158469
 31
0.0
  0
LINE
  5
1E6
102
{ACAD_REACTORS
330
32C
102
}
330
1F
100
AcDbEntity
  8
1
  6
Continuous
 62
     3
100
AcDbLine
 10
49.6090276361774
 20
58.4734727670467
 30
0.0
 11
50.6884150985386
 21
58.4734727670467
 31
0.0
  0
LINE
  5
1E7
102
{ACAD_REACTORS
330
32C
102
}
330
1F
100
AcDbEntity
  8
1
  6
Continuous
 62
     3
100
AcDbLine
 10
50.6884150985386
 20
58.4734727670467
 30
0.0
 11
50.1803115309932
 21
59.319123515793
 31
0.0
  0
LINE
  5
1E8
102
{ACAD_REACTORS
330
32C
102
}
330
1F
100
AcDbEntity
  8
1
  6
Continuous
 62
     3
100
AcDbLine
 10
50.8673847714125
 20
58.1756086158469
 30
0.0
 11
49.4078039127008
 21
58.1756086158469
 31
0.0
  0
LINE
  5
1E9
102
{ACAD_REACTORS
330
32B
102
}
330
1F
100
AcDbEntity
  8
1
  6
Continuous
 62
     3
100
AcDbLine
 10
55.298481110236
 20
57.835192443047
 30
0.0
 11
55.298481110236
 21
59.5372733070468
 31
0.0
  0
LINE
  5
1EA
102
{ACAD_REACTORS
330
32C
102
}
330
1F
100
AcDbEntity
  8
1
  6
Continuous
 62
     3
100
AcDbLine
 10
51.8000157022772
 20
57.835192443047
 30
0.0
 11
50.7787671838771
 21
59.5372733070468
 31
0.0
  0
LINE
  5
1EB
102
{ACAD_REACTORS
330
32A
102
}
330
1F
100
AcDbEntity
  8
1
  6
Continuous
 62
     3
100
AcDbLine
 10
56.3863354551008
 20
58.1756086158469
 30
0.0
 11
56.1563654854134
 21
57.835192443047
 31
0.0
  0
LINE
  5
1EC
102
{ACAD_REACTORS
330
32A
102
}
330
1F
100
AcDbEntity
  8
1
  6
Continuous
 62
     3
100
AcDbLine
 10
56.5875591785774
 20
58.4734727670467
 30
0.0
 11
57.1588430733932
 21
59.319123515793
 31
0.0
  0
LINE
  5
1ED
102
{ACAD_REACTORS
330
32A
102
}
330
1F
100
AcDbEntity
  8
1
  6
Continuous
 62
     3
100
AcDbLine
 10
55.676345261436
 20
57.835192443047
 30
0.0
 11
56.1563654854134
 21
57.835192443047
 31
0.0
  0
LINE
  5
1EE
102
{ACAD_REACTORS
330
32A
102
}
330
1F
100
AcDbEntity
  8
1
  6
Continuous
 62
     3
100
AcDbLine
 10
56.7826978230359
 20
59.5372733070468
 30
0.0
 11
57.7572987262772
 21
59.5372733070468
 31
0.0
  0
LINE
  5
1EF
102
{ACAD_REACTORS
330
32A
102
}
330
1F
100
AcDbEntity
  8
1
  6
Continuous
 62
     3
100
AcDbLine
 10
55.676345261436
 20
57.835192443047
 30
0.0
 11
56.7826978230359
 21
59.5372733070468
 31
0.0
  0
LINE
  5
1F0
102
{ACAD_REACTORS
330
32A
102
}
330
1F
100
AcDbEntity
  8
1
  6
Continuous
 62
     3
100
AcDbLine
 10
58.050453082811
 20
57.835192443047
 30
0.0
 11
58.7785472446773
 21
57.835192443047
 31
0.0
  0
LINE
  5
1F1
102
{ACAD_REACTORS
330
32A
102
}
330
1F
100
AcDbEntity
  8
1
  6
Continuous
 62
     3
100
AcDbLine
 10
58.050453082811
 20
57.835192443047
 30
0.0
 11
57.8459163138124
 21
58.1756086158469
 31
0.0
  0
LINE
  5
1F2
102
{ACAD_REACTORS
330
32A
102
}
330
1F
100
AcDbEntity
  8
1
  6
Continuous
 62
     3
100
AcDbLine
 10
56.5875591785774
 20
58.4734727670467
 30
0.0
 11
57.6669466409387
 21
58.4734727670467
 31
0.0
  0
LINE
  5
1F3
102
{ACAD_REACTORS
330
32A
102
}
330
1F
100
AcDbEntity
  8
1
  6
Continuous
 62
     3
100
AcDbLine
 10
57.6669466409387
 20
58.4734727670467
 30
0.0
 11
57.1588430733932
 21
59.319123515793
 31
0.0
  0
LINE
  5
1F4
102
{ACAD_REACTORS
330
32A
102
}
330
1F
100
AcDbEntity
  8
1
  6
Continuous
 62
     3
100
AcDbLine
 10
57.8459163138124
 20
58.1756086158469
 30
0.0
 11
56.3863354551008
 21
58.1756086158469
 31
0.0
  0
LINE
  5
1F5
102
{ACAD_REACTORS
330
32A
102
}
330
1F
100
AcDbEntity
  8
1
  6
Continuous
 62
     3
100
AcDbLine
 10
58.7785472446773
 20
57.835192443047
 30
0.0
 11
57.7572987262772
 21
59.5372733070468
 31
0.0
  0
LINE
  5
1F6
102
{ACAD_REACTORS
330
329
102
}
330
1F
100
AcDbEntity
  8
1
  6
Continuous
 62
     3
100
AcDbLine
 10
59.1806062761293
 20
59.1594091558469
 30
0.0
 11
59.8066467081295
 21
59.1594091558469
 31
0.0
  0
LINE
  5
1F7
102
{ACAD_REACTORS
330
329
102
}
330
1F
100
AcDbEntity
  8
1
  6
Continuous
 62
     3
100
AcDbLine
 10
59.1806062761293
 20
59.1594091558469
 30
0.0
 11
59.1806062761293
 21
57.835192443047
 31
0.0
  0
LINE
  5
1F8
102
{ACAD_REACTORS
330
329
102
}
330
1F
100
AcDbEntity
  8
1
  6
Continuous
 62
     3
100
AcDbLine
 10
59.8066467081295
 20
59.1594091558469
 30
0.0
 11
59.8066467081295
 21
57.835192443047
 31
0.0
  0
LINE
  5
1F9
102
{ACAD_REACTORS
330
331
102
}
330
1F
100
AcDbEntity
  8
1
  6
Continuous
 62
     3
100
AcDbLine
 10
35.7862736406837
 20
61.7044313468802
 30
0.0
 11
36.2337869627468
 21
61.8109821378478
 31
0.0
  0
LINE
  5
1FA
102
{ACAD_REACTORS
330
332
102
}
330
1F
100
AcDbEntity
  8
1
  6
Continuous
 62
     3
100
AcDbLine
 10
32.3648400589828
 20
63.1262328750468
 30
0.0
 11
34.8448400589829
 21
63.1262328750468
 31
0.0
  0
LINE
  5
1FB
102
{ACAD_REACTORS
330
332
102
}
330
1F
100
AcDbEntity
  8
1
  6
Continuous
 62
     3
100
AcDbLine
 10
32.0448400589829
 20
62.8062328750467
 30
0.0
 11
32.0448400589829
 21
62.2462328750467
 31
0.0
  0
LINE
  5
1FC
102
{ACAD_REACTORS
330
332
102
}
330
1F
100
AcDbEntity
  8
1
  6
Continuous
 62
     3
100
AcDbLine
 10
32.3648400589828
 20
61.9262328750469
 30
0.0
 11
34.8448400589829
 21
61.9262328750469
 31
0.0
  0
LINE
  5
1FD
102
{ACAD_REACTORS
330
332
102
}
330
1F
100
AcDbEntity
  8
1
  6
Continuous
 62
     3
100
AcDbLine
 10
35.1648400589829
 20
62.8062328750467
 30
0.0
 11
35.1648400589829
 21
62.2462328750467
 31
0.0
  0
LINE
  5
1FE
102
{ACAD_REACTORS
330
333
102
}
330
1F
100
AcDbEntity
  8
1
  6
Continuous
 62
     3
100
AcDbLine
 10
32.3648400589828
 20
55.4462328750466
 30
0.0
 11
33.0749092792952
 21
55.4462328750467
 31
0.0
  0
LINE
  5
1FF
102
{ACAD_REACTORS
330
333
102
}
330
1F
100
AcDbEntity
  8
1
  6
Continuous
 62
     3
100
AcDbLine
 10
32.0448400589829
 20
55.1262328750468
 30
0.0
 11
32.0448400589829
 21
54.5662328750466
 31
0.0
  0
LINE
  5
200
102
{ACAD_REACTORS
330
333
102
}
330
1F
100
AcDbEntity
  8
1
  6
Continuous
 62
     3
100
AcDbLine
 10
35.1648400589829
 20
55.1262328750468
 30
0.0
 11
35.1648400589829
 21
54.5662328750466
 31
0.0
  0
LINE
  5
201
102
{ACAD_REACTORS
330
333
102
}
330
1F
100
AcDbEntity
  8
1
  6
Continuous
 62
     3
100
AcDbLine
 10
33.8395444470307
 20
55.4462328750467
 30
0.0
 11
34.8448400589829
 21
55.4462328750466
 31
0.0
  0
LINE
  5
202
102
{ACAD_REACTORS
330
331
102
}
330
1F
100
AcDbEntity
  8
1
  6
Continuous
 62
     3
100
AcDbLine
 10
36.2337869627468
 20
55.5614836122457
 30
0.0
 11
35.7982841966019
 21
55.665174747042
 31
0.0
  0
LINE
  5
203
102
{ACAD_REACTORS
330
332
102
}
330
1F
100
AcDbEntity
  8
1
  6
Continuous
 62
     3
100
AcDbLine
 10
32.579840058983
 20
62.8912328750469
 30
0.0
 11
34.6298400589829
 21
62.8912328750469
 31
0.0
  0
LINE
  5
204
102
{ACAD_REACTORS
330
332
102
}
330
1F
100
AcDbEntity
  8
1
  6
Continuous
 62
     3
100
AcDbLine
 10
32.579840058983
 20
62.1612328750468
 30
0.0
 11
34.6298400589829
 21
62.1612328750468
 31
0.0
  0
LINE
  5
205
102
{ACAD_REACTORS
330
332
102
}
330
1F
100
AcDbEntity
  8
1
  6
Continuous
 62
     3
100
AcDbLine
 10
34.9298400589829
 20
62.5912328750466
 30
0.0
 11
34.9298400589829
 21
62.4612328750467
 31
0.0
  0
LINE
  5
206
102
{ACAD_REACTORS
330
332
102
}
330
1F
100
AcDbEntity
  8
1
  6
Continuous
 62
     3
100
AcDbLine
 10
32.2798400589829
 20
62.5912328750466
 30
0.0
 11
32.2798400589829
 21
62.4612328750467
 31
0.0
  0
LINE
  5
207
102
{ACAD_REACTORS
330
333
102
}
330
1F
100
AcDbEntity
  8
1
  6
Continuous
 62
     3
100
AcDbLine
 10
32.579840058983
 20
55.2112328750466
 30
0.0
 11
33.0749092792952
 21
55.2112328750468
 31
0.0
  0
LINE
  5
208
102
{ACAD_REACTORS
330
333
102
}
330
1F
100
AcDbEntity
  8
1
  6
Continuous
 62
     3
100
AcDbLine
 10
34.6298400589829
 20
54.4812328750467
 30
0.0
 11
34.0862061354222
 21
54.4812328750467
 31
0.0
  0
LINE
  5
209
102
{ACAD_REACTORS
330
333
102
}
330
1F
100
AcDbEntity
  8
1
  6
Continuous
 62
     3
100
AcDbLine
 10
34.9298400589829
 20
54.9112328750465
 30
0.0
 11
34.9298400589829
 21
54.7812328750466
 31
0.0
  0
LINE
  5
20A
102
{ACAD_REACTORS
330
333
102
}
330
1F
100
AcDbEntity
  8
1
  6
Continuous
 62
     3
100
AcDbLine
 10
32.2798400589829
 20
54.9112328750465
 30
0.0
 11
32.2798400589829
 21
54.7812328750466
 31
0.0
  0
LINE
  5
20B
102
{ACAD_REACTORS
330
333
102
}
330
1F
100
AcDbEntity
  8
1
  6
Continuous
 62
     3
100
AcDbLine
 10
33.8231550267657
 20
55.1423465137439
 30
0.0
 11
33.3002228806083
 21
54.3288965086104
 31
0.0
  0
LINE
  5
20C
102
{ACAD_REACTORS
330
333
102
}
330
1F
100
AcDbEntity
  8
1
  6
Continuous
 62
     3
100
AcDbLine
 10
33.9493317980723
 20
55.2112328750468
 30
0.0
 11
34.6298400589829
 21
55.2112328750466
 31
0.0
  0
LINE
  5
20D
102
{ACAD_REACTORS
330
333
102
}
330
1F
100
AcDbEntity
  8
1
  6
Continuous
 62
     3
100
AcDbLine
 10
33.0369673367909
 20
54.4812328750467
 30
0.0
 11
32.579840058983
 21
54.4812328750467
 31
0.0
  0
LINE
  5
20E
102
{ACAD_REACTORS
330
333
102
}
330
1F
100
AcDbEntity
  8
1
  6
Continuous
 62
     3
100
AcDbLine
 10
33.1488107550406
 20
54.2462328750467
 30
0.0
 11
32.3648400589828
 21
54.2462328750467
 31
0.0
  0
LINE
  5
20F
102
{ACAD_REACTORS
330
333
102
}
330
1F
100
AcDbEntity
  8
1
  6
Continuous
 62
     3
100
AcDbLine
 10
33.8395444470307
 20
55.4462328750467
 30
0.0
 11
33.8383934583786
 21
55.4462328750467
 31
0.0
  0
LINE
  5
210
102
{ACAD_REACTORS
330
333
102
}
330
1F
100
AcDbEntity
  8
1
  6
Continuous
 62
     3
100
AcDbLine
 10
33.6870579620254
 20
55.3636883394576
 30
0.0
 11
33.1630802504186
 21
54.5500199880377
 31
0.0
  0
LINE
  5
211
102
{ACAD_REACTORS
330
333
102
}
330
1F
100
AcDbEntity
  8
1
  6
Continuous
 62
     3
100
AcDbLine
 10
33.0749092792952
 20
55.4462328750467
 30
0.0
 11
33.0749092792952
 21
55.2112328750468
 31
0.0
  0
LINE
  5
212
102
{ACAD_REACTORS
330
333
102
}
330
1F
100
AcDbEntity
  8
1
  6
Continuous
 62
     3
100
AcDbLine
 10
34.0862061354222
 20
54.4812328750467
 30
0.0
 11
34.0862061354222
 21
54.2462328750467
 31
0.0
  0
LINE
  5
213
102
{ACAD_REACTORS
330
333
102
}
330
1F
100
AcDbEntity
  8
1
  6
Continuous
 62
     3
100
AcDbLine
 10
34.0862061354222
 20
54.2462328750467
 30
0.0
 11
34.8448400589829
 21
54.2462328750467
 31
0.0
  0
LINE
  5
214
102
{ACAD_REACTORS
330
331
102
}
330
1F
100
AcDbEntity
  8
1
  6
Continuous
 62
     3
100
AcDbLine
 10
35.5848400589829
 20
63.4043123543055
 30
0.0
 11
35.7862736406837
 21
61.7044313468802
 31
0.0
  0
LINE
  5
215
102
{ACAD_REACTORS
330
331
102
}
330
1F
100
AcDbEntity
  8
1
  6
Continuous
 62
     3
100
AcDbLine
 10
35.7982841966019
 20
55.665174747042
 30
0.0
 11
35.5848400589829
 21
53.9681533957879
 31
0.0
  0
LINE
  5
216
330
1F
100
AcDbEntity
  8
1
  6
Continuous
 62
     3
100
AcDbLine
 10
71.548379490633
 20
61.0136165160124
 30
0.0
 11
71.548379490633
 21
59.9189906316942
 31
0.0
  0
LINE
  5
217
330
1F
100
AcDbEntity
  8
1
  6
Continuous
 62
     3
100
AcDbLine
 10
62.048379490633
 20
61.9150731266283
 30
0.0
 11
62.048379490633
 21
61.7183589703844
 31
0.0
  0
LINE
  5
218
102
{ACAD_REACTORS
330
31E
102
}
330
1F
100
AcDbEntity
  8
1
  6
Continuous
 62
     3
100
AcDbLine
 10
66.0594061226013
 20
60.6566506818546
 30
0.0
 11
66.0594061226013
 21
60.9549644518564
 31
0.0
  0
LINE
  5
219
102
{ACAD_REACTORS
330
31E
102
}
330
1F
100
AcDbEntity
  8
1
  6
Continuous
 62
     3
100
AcDbLine
 10
66.7753591706056
 20
60.6566506818546
 30
0.0
 11
66.0594061226013
 21
60.6566506818546
 31
0.0
  0
LINE
  5
21A
102
{ACAD_REACTORS
330
31E
102
}
330
1F
100
AcDbEntity
  8
1
  6
Continuous
 62
     3
100
AcDbLine
 10
66.7753591706056
 20
60.9549644518564
 30
0.0
 11
66.7753591706056
 21
60.6566506818546
 31
0.0
  0
LINE
  5
21B
102
{ACAD_REACTORS
330
31E
102
}
330
1F
100
AcDbEntity
  8
1
  6
Continuous
 62
     3
100
AcDbLine
 10
66.0594061226013
 20
60.9549644518564
 30
0.0
 11
66.7753591706056
 21
60.9549644518564
 31
0.0
  0
LINE
  5
21C
102
{ACAD_REACTORS
330
31C
102
}
330
1F
100
AcDbEntity
  8
1
  6
Continuous
 62
     3
100
AcDbLine
 10
69.1618693306193
 20
59.8213721258497
 30
0.0
 11
69.1618693306193
 21
61.7902430078613
 31
0.0
  0
LINE
  5
21D
102
{ACAD_REACTORS
330
31C
102
}
330
1F
100
AcDbEntity
  8
1
  6
Continuous
 62
     3
100
AcDbLine
 10
69.4601831006212
 20
59.6423838638488
 30
0.0
 11
69.3408575926204
 21
59.6423838638488
 31
0.0
  0
LINE
  5
21E
102
{ACAD_REACTORS
330
31C
102
}
330
1F
100
AcDbEntity
  8
1
  6
Continuous
 62
     3
100
AcDbLine
 10
69.6391713626221
 20
61.7902430078613
 30
0.0
 11
69.6391713626221
 21
59.8213721258497
 31
0.0
  0
LINE
  5
21F
102
{ACAD_REACTORS
330
31C
102
}
330
1F
100
AcDbEntity
  8
1
  6
Continuous
 62
     3
100
AcDbLine
 10
69.3408575926204
 20
61.9692312698622
 30
0.0
 11
69.4601831006212
 21
61.9692312698622
 31
0.0
  0
LINE
  5
220
102
{ACAD_REACTORS
330
31C
102
}
330
1F
100
AcDbEntity
  8
1
  6
Continuous
 62
     3
100
AcDbLine
 10
68.8038928066172
 20
59.6423838638488
 30
0.0
 11
68.8038928066172
 21
61.9692312698622
 31
0.0
  0
LINE
  5
221
102
{ACAD_REACTORS
330
31C
102
}
330
1F
100
AcDbEntity
  8
1
  6
Continuous
 62
     3
100
AcDbLine
 10
69.6391713626221
 20
59.2844073398468
 30
0.0
 11
69.1618693306193
 21
59.2844073398468
 31
0.0
  0
LINE
  5
222
102
{ACAD_REACTORS
330
31C
102
}
330
1F
100
AcDbEntity
  8
1
  6
Continuous
 62
     3
100
AcDbLine
 10
69.9971478866241
 20
61.9692312698622
 30
0.0
 11
69.9971478866241
 21
59.6423838638488
 31
0.0
  0
LINE
  5
223
102
{ACAD_REACTORS
330
31C
102
}
330
1F
100
AcDbEntity
  8
1
  6
Continuous
 62
     3
100
AcDbLine
 10
69.1618693306193
 20
62.3272077938642
 30
0.0
 11
69.6391713626221
 21
62.3272077938642
 31
0.0
  0
LINE
  5
224
102
{ACAD_REACTORS
330
31B
102
}
330
1F
100
AcDbEntity
  8
1
  6
Continuous
 62
     3
100
AcDbLine
 10
70.7131009346282
 20
59.8213721258497
 30
0.0
 11
70.7131009346282
 21
61.7902430078613
 31
0.0
  0
LINE
  5
225
102
{ACAD_REACTORS
330
31B
102
}
330
1F
100
AcDbEntity
  8
1
  6
Continuous
 62
     3
100
AcDbLine
 10
71.0114147046301
 20
59.6423838638488
 30
0.0
 11
70.8920891966293
 21
59.6423838638488
 31
0.0
  0
LINE
  5
226
102
{ACAD_REACTORS
330
31B
102
}
330
1F
100
AcDbEntity
  8
1
  6
Continuous
 62
     3
100
AcDbLine
 10
71.190402966631
 20
61.7902430078613
 30
0.0
 11
71.190402966631
 21
59.8213721258497
 31
0.0
  0
LINE
  5
227
102
{ACAD_REACTORS
330
31B
102
}
330
1F
100
AcDbEntity
  8
1
  6
Continuous
 62
     3
100
AcDbLine
 10
70.8920891966293
 20
61.9692312698622
 30
0.0
 11
71.0114147046301
 21
61.9692312698622
 31
0.0
  0
LINE
  5
228
102
{ACAD_REACTORS
330
31B
102
}
330
1F
100
AcDbEntity
  8
1
  6
Continuous
 62
     3
100
AcDbLine
 10
70.3551244106262
 20
59.6423838638488
 30
0.0
 11
70.3551244106262
 21
61.9692312698622
 31
0.0
  0
LINE
  5
229
102
{ACAD_REACTORS
330
31B
102
}
330
1F
100
AcDbEntity
  8
1
  6
Continuous
 62
     3
100
AcDbLine
 10
71.190402966631
 20
59.2844073398468
 30
0.0
 11
70.7131009346282
 21
59.2844073398468
 31
0.0
  0
LINE
  5
22A
102
{ACAD_REACTORS
330
31B
102
}
330
1F
100
AcDbEntity
  8
1
  6
Continuous
 62
     3
100
AcDbLine
 10
71.548379490633
 20
61.9692312698622
 30
0.0
 11
71.548379490633
 21
59.6423838638488
 31
0.0
  0
LINE
  5
22B
102
{ACAD_REACTORS
330
31B
102
}
330
1F
100
AcDbEntity
  8
1
  6
Continuous
 62
     3
100
AcDbLine
 10
70.7131009346282
 20
62.3272077938642
 30
0.0
 11
71.190402966631
 21
62.3272077938642
 31
0.0
  0
LINE
  5
22C
102
{ACAD_REACTORS
330
31F
102
}
330
1F
100
AcDbEntity
  8
1
  6
Continuous
 62
     3
100
AcDbLine
 10
64.5955381737539
 20
59.4820573531454
 30
0.0
 11
64.5955381737539
 21
59.2844073398467
 31
0.0
  0
LINE
  5
22D
102
{ACAD_REACTORS
330
31F
102
}
330
1F
100
AcDbEntity
  8
1
  6
Continuous
 62
     3
100
AcDbLine
 10
65.1615734366696
 20
60.8444349647246
 30
0.0
 11
65.1615734366696
 21
61.2655307600518
 31
0.0
  0
LINE
  5
22E
102
{ACAD_REACTORS
330
31F
102
}
330
1F
100
AcDbEntity
  8
1
  6
Continuous
 62
     3
100
AcDbLine
 10
65.1515295731373
 20
60.7978174446337
 30
0.0
 11
64.6306916961171
 21
59.6452186734638
 31
0.0
  0
LINE
  5
22F
102
{ACAD_REACTORS
330
31F
102
}
330
1F
100
AcDbEntity
  8
1
  6
Continuous
 62
     3
100
AcDbLine
 10
65.4061020078906
 20
60.6752719969302
 30
0.0
 11
64.8785558052118
 21
59.5674249713046
 31
0.0
  0
LINE
  5
230
102
{ACAD_REACTORS
330
31F
102
}
330
1F
100
AcDbEntity
  8
1
  6
Continuous
 62
     3
100
AcDbLine
 10
65.4445910681275
 20
59.2844073398467
 30
0.0
 11
64.5955381737539
 21
59.2844073398467
 31
0.0
  0
LINE
  5
231
102
{ACAD_REACTORS
330
31F
102
}
330
1F
100
AcDbEntity
  8
1
  6
Continuous
 62
     3
100
AcDbLine
 10
65.4445910681275
 20
59.5674249713046
 30
0.0
 11
65.4445910681275
 21
59.2844073398467
 31
0.0
  0
LINE
  5
232
102
{ACAD_REACTORS
330
31F
102
}
330
1F
100
AcDbEntity
  8
1
  6
Continuous
 62
     3
100
AcDbLine
 10
64.8785558052118
 20
59.5674249713046
 30
0.0
 11
65.4445910681275
 21
59.5674249713046
 31
0.0
  0
LINE
  5
233
102
{ACAD_REACTORS
330
31F
102
}
330
1F
100
AcDbEntity
  8
1
  6
Continuous
 62
     3
100
AcDbLine
 10
64.9917628577949
 20
61.378737812635
 30
0.0
 11
65.0483663840865
 21
61.378737812635
 31
0.0
  0
LINE
  5
234
102
{ACAD_REACTORS
330
31F
102
}
330
1F
100
AcDbEntity
  8
1
  6
Continuous
 62
     3
100
AcDbLine
 10
64.8785558052118
 20
60.9825131285939
 30
0.0
 11
64.8785558052118
 21
61.2655307600518
 31
0.0
  0
LINE
  5
235
102
{ACAD_REACTORS
330
31F
102
}
330
1F
100
AcDbEntity
  8
1
  6
Continuous
 62
     3
100
AcDbLine
 10
65.4445910681275
 20
61.2655307600518
 30
0.0
 11
65.4445910681275
 21
60.8456222939797
 31
0.0
  0
LINE
  5
236
102
{ACAD_REACTORS
330
31F
102
}
330
1F
100
AcDbEntity
  8
1
  6
Continuous
 62
     3
100
AcDbLine
 10
64.9917628577949
 20
61.6617554440928
 30
0.0
 11
65.0483663840865
 21
61.6617554440928
 31
0.0
  0
LINE
  5
237
102
{ACAD_REACTORS
330
31F
102
}
330
1F
100
AcDbEntity
  8
1
  6
Continuous
 62
     3
100
AcDbLine
 10
64.5955381737539
 20
60.9825131285939
 30
0.0
 11
64.5955381737539
 21
61.2655307600518
 31
0.0
  0
LINE
  5
238
102
{ACAD_REACTORS
330
31F
102
}
330
1F
100
AcDbEntity
  8
1
  6
Continuous
 62
     3
100
AcDbLine
 10
64.5955381737539
 20
60.9825131285939
 30
0.0
 11
64.8785558052118
 21
60.9825131285939
 31
0.0
  0
LINE
  5
239
102
{ACAD_REACTORS
330
320
102
}
330
1F
100
AcDbEntity
  8
1
  6
Continuous
 62
     3
100
AcDbLine
 10
62.5578112272572
 20
59.3410108661383
 30
0.0
 11
62.8408288587151
 21
59.3410108661383
 31
0.0
  0
LINE
  5
23A
102
{ACAD_REACTORS
330
320
102
}
330
1F
100
AcDbEntity
  8
1
  6
Continuous
 62
     3
100
AcDbLine
 10
64.312520542296
 20
62.2277907070086
 30
0.0
 11
62.5578112272572
 21
59.3410108661383
 31
0.0
  0
LINE
  5
23B
102
{ACAD_REACTORS
330
320
102
}
330
1F
100
AcDbEntity
  8
1
  6
Continuous
 62
     3
100
AcDbLine
 10
64.5955381737539
 20
62.2277907070086
 30
0.0
 11
64.312520542296
 21
62.2277907070086
 31
0.0
  0
LINE
  5
23C
102
{ACAD_REACTORS
330
320
102
}
330
1F
100
AcDbEntity
  8
1
  6
Continuous
 62
     3
100
AcDbLine
 10
64.5955381737539
 20
62.2277907070086
 30
0.0
 11
62.8408288587151
 21
59.3410108661383
 31
0.0
  0
LINE
  5
23D
102
{ACAD_REACTORS
330
321
102
}
330
1F
100
AcDbEntity
  8
1
  6
Continuous
 62
     3
100
AcDbLine
 10
62.6144147535488
 20
59.9636496553456
 30
0.0
 11
62.6144147535488
 21
62.2843942333002
 31
0.0
  0
LINE
  5
23E
102
{ACAD_REACTORS
330
321
102
}
330
1F
100
AcDbEntity
  8
1
  6
Continuous
 62
     3
100
AcDbLine
 10
62.3313971220909
 20
61.7183589703844
 30
0.0
 11
62.3313971220909
 21
59.9636496553456
 31
0.0
  0
LINE
  5
23F
102
{ACAD_REACTORS
330
321
102
}
330
1F
100
AcDbEntity
  8
1
  6
Continuous
 62
     3
100
AcDbLine
 10
62.048379490633
 20
61.7183589703844
 30
0.0
 11
62.048379490633
 21
61.9447730755507
 31
0.0
  0
LINE
  5
240
102
{ACAD_REACTORS
330
321
102
}
330
1F
100
AcDbEntity
  8
1
  6
Continuous
 62
     3
100
AcDbLine
 10
62.048379490633
 20
61.7183589703844
 30
0.0
 11
62.3313971220909
 21
61.7183589703844
 31
0.0
  0
LINE
  5
241
102
{ACAD_REACTORS
330
321
102
}
330
1F
100
AcDbEntity
  8
1
  6
Continuous
 62
     3
100
AcDbLine
 10
62.444604174674
 20
62.2843942333002
 30
0.0
 11
62.6144147535488
 21
62.2843942333002
 31
0.0
  0
LINE
  5
242
102
{ACAD_REACTORS
330
321
102
}
330
1F
100
AcDbEntity
  8
1
  6
Continuous
 62
     3
100
AcDbLine
 10
62.3313971220909
 20
59.9636496553456
 30
0.0
 11
62.6144147535488
 21
59.9636496553456
 31
0.0
  0
ARC
  5
243
330
1F
100
AcDbEntity
  8
1
  6
Continuous
 62
     3
100
AcDbCircle
 10
-54.8504149365812
 20
11.99999999999999
 30
0.0
 40
30.00000000000002
100
AcDbArc
 50
87.03766675806536
 51
92.96233324193445
  0
ARC
  5
244
330
1F
100
AcDbEntity
  8
1
  6
Continuous
 62
     3
100
AcDbCircle
 10
-56.4007980462843
 20
13.23334940806649
 30
0.0
 40
28.72656234435942
100
AcDbArc
 50
90.0
 51
101.7562237718735
  0
ARC
  5
245
330
1F
100
AcDbEntity
  8
1
  6
Continuous
 62
     3
100
AcDbCircle
 10
-61.7083807695853
 20
38.40731796538969
 30
0.0
 40
2.99999999999996
100
AcDbArc
 50
100.4746173815462
 51
136.6592686961617
  0
ARC
  5
246
330
1F
100
AcDbEntity
  8
1
  6
Continuous
 62
     3
100
AcDbCircle
 10
-60.8841612833412
 20
37.5322076434498
 30
0.0
 40
3.9747957424779
100
AcDbArc
 50
186.3216031356477
 51
240.3200205284449
  0
ARC
  5
247
330
1F
100
AcDbEntity
  8
1
  6
Continuous
 62
     3
100
AcDbCircle
 10
-60.03193342363268
 20
37.5672896818131
 30
0.0
 40
4.826064773835832
100
AcDbArc
 50
143.0796874008763
 51
185.6214932016777
  0
ARC
  5
248
330
1F
100
AcDbEntity
  8
1
  6
Continuous
 62
     3
100
AcDbCircle
 10
-48.8166685898211
 20
37.5322076434498
 30
0.0
 40
3.974795742478004
100
AcDbArc
 50
299.679979471555
 51
353.6783968643525
  0
ARC
  5
249
330
1F
100
AcDbEntity
  8
1
  6
Continuous
 62
     3
100
AcDbCircle
 10
-49.66889644952962
 20
37.56728968181309
 30
0.0
 40
4.826064773836057
100
AcDbArc
 50
354.3785067983226
 51
36.92031259912336
  0
ARC
  5
24A
330
1F
100
AcDbEntity
  8
1
  6
Continuous
 62
     3
100
AcDbCircle
 10
-0.00000000000001
 20
13.2004026278051
 30
0.0
 40
8.399597372195016
100
AcDbArc
 50
70.31773648072992
 51
109.68226351927
  0
ARC
  5
24B
330
1F
100
AcDbEntity
  8
1
  6
Continuous
 62
     3
100
AcDbCircle
 10
4.28950815951458
 20
19.181374696111
 30
0.0
 40
2.41862530388912
100
AcDbArc
 50
52.85371878704395
 51
127.146281212956
  0
ARC
  5
24C
330
1F
100
AcDbEntity
  8
1
  6
Continuous
 62
     3
100
AcDbCircle
 10
-4.28950815951459
 20
19.1813746961111
 30
0.0
 40
2.41862530388904
100
AcDbArc
 50
52.85371878704253
 51
127.1462812129573
  0
ARC
  5
24D
330
1F
100
AcDbEntity
  8
1
  6
Continuous
 62
     3
100
AcDbCircle
 10
-4.28950815951459
 20
20.418625303889
 30
0.0
 40
2.418625303888876
100
AcDbArc
 50
232.8537187870398
 51
307.1462812129603
  0
ARC
  5
24E
330
1F
100
AcDbEntity
  8
1
  6
Continuous
 62
     3
100
AcDbCircle
 10
-0.00000000000001
 20
26.3995973721937
 30
0.0
 40
8.3995973721936
100
AcDbArc
 50
250.3177364807266
 51
289.6822635192736
  0
ARC
  5
24F
330
1F
100
AcDbEntity
  8
1
  6
Continuous
 62
     3
100
AcDbCircle
 10
4.28950815951458
 20
20.4186253038888
 30
0.0
 40
2.41862530388872
100
AcDbArc
 50
232.8537187870368
 51
307.1462812129632
  0
ARC
  5
250
330
1F
100
AcDbEntity
  8
1
  6
Continuous
 62
     3
100
AcDbCircle
 10
-4.59609178423904
 20
23.4677291972588
 30
0.0
 40
8.000000000000023
100
AcDbArc
 50
299.428892853829
 51
316.884902409869
  0
ARC
  5
251
330
1F
100
AcDbEntity
  8
1
  6
Continuous
 62
     3
100
AcDbCircle
 10
-3.59609178423905
 20
23.4677291972588
 30
0.0
 40
8.000000000000027
100
AcDbArc
 50
299.428892853829
 51
316.884902409869
  0
ARC
  5
252
330
1F
100
AcDbEntity
  8
1
  6
Continuous
 62
     3
100
AcDbCircle
 10
54.1851722293679
 20
7.38216284047382
 30
0.0
 40
61.50000000000009
100
AcDbArc
 50
70.34853498296464
 51
91.89501942641674
  0
ARC
  5
253
330
1F
100
AcDbEntity
  8
1
  6
Continuous
 62
     3
100
AcDbCircle
 10
14.324015498571
 20
71.0
 30
0.0
 40
13.67598450142906
100
AcDbArc
 50
342.3450846689535
 51
0.0
  0
ARC
  5
254
330
1F
100
AcDbEntity
  8
1
  6
Continuous
 62
     3
100
AcDbCircle
 10
3.065685249373
 20
58.0
 30
0.0
 40
24.93431475062714
100
AcDbArc
 50
342.4949234865546
 51
343.32373042699
  0
ARC
  5
255
330
1F
100
AcDbEntity
  8
1
  6
Continuous
 62
     3
100
AcDbCircle
 10
14.324015498571
 20
45.0
 30
0.0
 40
13.675984501429
100
AcDbArc
 50
0.0
 51
23.71358247333396
  0
ARC
  5
256
330
1F
100
AcDbEntity
  8
1
  6
Continuous
 62
     3
100
AcDbCircle
 10
77.151471862577
 20
58.848528137424
 30
0.0
 40
2.860183399420057
100
AcDbArc
 50
327.3814436682685
 51
0.0
  0
ARC
  5
257
330
1F
100
AcDbEntity
  8
1
  6
Continuous
 62
     3
100
AcDbCircle
 10
72.151471862577
 20
58.848528137424
 30
0.0
 40
6.999999999999818
100
AcDbArc
 50
292.8301474463632
 51
327.1277785122809
  0
ARC
  5
258
330
1F
100
AcDbEntity
  8
1
  6
Continuous
 62
     3
100
AcDbCircle
 10
84.68530698172
 20
52.1867479974216
 30
0.0
 40
7.244155985943737
100
AcDbArc
 50
135.026561760383
 51
156.7256977533818
  0
ARC
  5
259
330
1F
100
AcDbEntity
  8
1
  6
Continuous
 62
     3
100
AcDbCircle
 10
54.1851722293679
 20
110.314893434374
 30
0.0
 40
61.49999999999988
100
AcDbArc
 50
268.1049805735832
 51
289.6514650170354
  0
ARC
  5
25A
330
1F
100
AcDbEntity
  8
1
  6
Continuous
 62
     3
100
AcDbCircle
 10
21.1910148365018
 20
52.0151571094097
 30
0.0
 40
1.170421990446644
100
AcDbArc
 50
188.1848130657114
 51
269.6699397333393
  0
ARC
  5
25B
330
1F
100
AcDbEntity
  8
1
  6
Continuous
 62
     3
100
AcDbCircle
 10
21.1910148365018
 20
65.6818991654382
 30
0.0
 40
1.170421990446691
100
AcDbArc
 50
90.33006026666067
 51
171.8151869342838
  0
ARC
  5
25C
330
1F
100
AcDbEntity
  8
1
  6
Continuous
 62
     3
100
AcDbCircle
 10
77.151471862577
 20
58.848528137424
 30
0.0
 40
2.860183399420009
100
AcDbArc
 50
0.0
 51
32.61855633172719
  0
ARC
  5
25D
330
1F
100
AcDbEntity
  8
1
  6
Continuous
 62
     3
100
AcDbCircle
 10
72.151471862577
 20
58.848528137424
 30
0.0
 40
6.999999999999797
100
AcDbArc
 50
32.87222148771873
 51
67.16985255363682
  0
ARC
  5
25E
330
1F
100
AcDbEntity
  8
1
  6
Continuous
 62
     3
100
AcDbCircle
 10
84.68530698172
 20
65.5103082774263
 30
0.0
 40
7.244155985943108
100
AcDbArc
 50
203.2743022466178
 51
224.9734382396181
  0
ARC
  5
25F
330
1F
100
AcDbEntity
  8
1
  6
Continuous
 62
     3
100
AcDbCircle
 10
0.0
 20
58.0
 30
0.0
 40
3.000296253845686
100
AcDbArc
 50
41.80525489794103
 51
138.194745102059
  0
ARC
  5
260
330
1F
100
AcDbEntity
  8
1
  6
Continuous
 62
     3
100
AcDbCircle
 10
0.0
 20
58.0
 30
0.0
 40
3.000296253845686
100
AcDbArc
 50
318.194745102059
 51
41.80525489794103
  0
ARC
  5
261
330
1F
100
AcDbEntity
  8
1
  6
Continuous
 62
     3
100
AcDbCircle
 10
0.0
 20
58.0
 30
0.0
 40
3.000296253845686
100
AcDbArc
 50
221.805254897941
 51
318.194745102059
  0
ARC
  5
262
330
1F
100
AcDbEntity
  8
1
  6
Continuous
 62
     3
100
AcDbCircle
 10
0.0
 20
58.0
 30
0.0
 40
3.000296253845686
100
AcDbArc
 50
138.194745102059
 51
221.805254897941
  0
ARC
  5
263
330
1F
100
AcDbEntity
  8
1
  6
Continuous
 62
     3
100
AcDbCircle
 10
0.00213087356292
 20
57.996309218725
 30
0.0
 40
4.999999999999815
100
AcDbArc
 50
30.00000000000123
 51
210.0000000000012
  0
ARC
  5
264
330
1F
100
AcDbEntity
  8
1
  6
Continuous
 62
     3
100
AcDbCircle
 10
0.00213087356292
 20
57.996309218725
 30
0.0
 40
4.999999999999824
100
AcDbArc
 50
210.0000000000012
 51
30.00000000000123
  0
ARC
  5
265
330
1F
100
AcDbEntity
  8
1
  6
Continuous
 62
     3
100
AcDbCircle
 10
-0.84852813742305
 20
58.848528137424
 30
0.0
 40
10.99999999999959
100
AcDbArc
 50
45.58469140280805
 51
109.6230664748481
  0
ARC
  5
266
330
1F
100
AcDbEntity
  8
1
  6
Continuous
 62
     3
100
AcDbCircle
 10
-0.84852813742305
 20
58.848528137424
 30
0.0
 40
11.00000000000034
100
AcDbArc
 50
160.3769335251537
 51
314.4153085971909
  0
ARC
  5
267
330
1F
100
AcDbEntity
  8
1
  6
Continuous
 62
     3
100
AcDbCircle
 10
0.0
 20
58.0
 30
0.0
 40
2.300000000000059
100
AcDbArc
 50
299.5918457939483
 51
60.40815420604937
  0
ARC
  5
268
330
1F
100
AcDbEntity
  8
1
  6
Continuous
 62
     3
100
AcDbCircle
 10
0.0
 20
58.0
 30
0.0
 40
2.299999999999887
100
AcDbArc
 50
119.5918457939508
 51
240.4081542060488
  0
ARC
  5
269
330
1F
100
AcDbEntity
  8
1
  6
Continuous
 62
     3
100
AcDbCircle
 10
-12.82539049435005
 20
71.01375
 30
0.0
 40
13.67887816352271
100
AcDbArc
 50
180.0575936923744
 51
203.771176165708
  0
ARC
  5
26A
330
1F
100
AcDbEntity
  8
1
  6
Continuous
 62
     3
100
AcDbCircle
 10
-12.82539049435005
 20
44.98625000000001
 30
0.0
 40
13.67887816352284
100
AcDbArc
 50
156.2288238342921
 51
179.9424063076257
  0
ARC
  5
26B
330
1F
100
AcDbEntity
  8
1
  6
Continuous
 62
     3
100
AcDbCircle
 10
-1.56417349380627
 20
57.99999999999999
 30
0.0
 40
24.93431475062717
100
AcDbArc
 50
162.4949234865546
 51
197.5050765134454
  0
ARC
  5
26C
330
1F
100
AcDbEntity
  8
1
  6
Continuous
 62
     3
100
AcDbCircle
 10
0.0
 20
19.6999999999999
 30
0.0
 40
3.207802986469255
100
AcDbArc
 50
110.736359540259
 51
134.1925181535694
  0
ARC
  5
26D
330
1F
100
AcDbEntity
  8
1
  6
Continuous
 62
     3
100
AcDbCircle
 10
0.0
 20
19.6999999999999
 30
0.0
 40
3.207802986469265
100
AcDbArc
 50
45.80748184641897
 51
69.26364045974098
  0
ARC
  5
26E
330
1F
100
AcDbEntity
  8
1
  6
Continuous
 62
     3
100
AcDbCircle
 10
0.0
 20
19.6999999999999
 30
0.0
 40
3.207802986469255
100
AcDbArc
 50
110.736359540259
 51
134.1925181535694
  0
ARC
  5
26F
330
1F
100
AcDbEntity
  8
1
  6
Continuous
 62
     3
100
AcDbCircle
 10
-13.5897674026592
 20
14.0192107712303
 30
0.0
 40
0.482040498728739
100
AcDbArc
 50
87.8192721172067
 51
182.284014911467
  0
ARC
  5
270
330
1F
100
AcDbEntity
  8
1
  6
Continuous
 62
     3
100
AcDbCircle
 10
-11.1579332076772
 20
16.2036115121098
 30
0.0
 40
0.297520365537959
100
AcDbArc
 50
94.99938753949921
 51
165.9808499859271
  0
ARC
  5
271
330
1F
100
AcDbEntity
  8
1
  6
Continuous
 62
     3
100
AcDbCircle
 10
14.209759519933
 20
16.383398987652
 30
0.0
 40
1.883398987651907
100
AcDbArc
 50
268.2265201767518
 51
323.1200000000112
  0
ARC
  5
272
330
1F
100
AcDbEntity
  8
1
  6
Continuous
 62
     3
100
AcDbCircle
 10
13.560226344053
 20
17.6827517030598
 30
0.0
 40
1.182751703059701
100
AcDbArc
 50
270.0
 51
323.1200000000027
  0
ARC
  5
273
330
1F
100
AcDbEntity
  8
1
  6
Continuous
 62
     3
100
AcDbCircle
 10
21.7122081945549
 20
23.5160680329188
 30
0.0
 40
1.162841299978976
100
AcDbArc
 50
241.170011808422
 51
323.1199999999814
  0
ARC
  5
274
330
1F
100
AcDbEntity
  8
1
  6
Continuous
 62
     3
100
AcDbCircle
 10
31.8112934021178
 20
31.7064065768596
 30
0.0
 40
1.99999999999999
100
AcDbArc
 50
95.69204661843963
 51
143.1199999999892
  0
ARC
  5
275
330
1F
100
AcDbEntity
  8
1
  6
Continuous
 62
     3
100
AcDbCircle
 10
31.8111758087689
 20
31.7062498433085
 30
0.0
 40
5.999999999999925
100
AcDbArc
 50
94.99999999999962
 51
140.669528610217
  0
ARC
  5
276
330
1F
100
AcDbEntity
  8
1
  6
Continuous
 62
     3
100
AcDbCircle
 10
26.0677155708129
 20
25.8569511828621
 30
0.0
 40
4.916243708236068
100
AcDbArc
 50
143.1199999999988
 51
180.0
  0
ARC
  5
277
330
1F
100
AcDbEntity
  8
1
  6
Continuous
 62
     3
100
AcDbCircle
 10
78.797644862098
 20
40.04454470366621
 30
0.0
 40
1.202412689594712
100
AcDbArc
 50
321.7790318638309
 51
0.56058521134261
  0
ARC
  5
278
330
1F
100
AcDbEntity
  8
1
  6
Continuous
 62
     3
100
AcDbCircle
 10
77.8685315218838
 20
40.0011875775762
 30
0.0
 40
2.000449031820644
100
AcDbArc
 50
275.6017855683559
 51
339.5000392434562
  0
ARC
  5
279
330
1F
100
AcDbEntity
  8
1
  6
Continuous
 62
     3
100
AcDbCircle
 10
78.797644862098
 20
40.04454470366621
 30
0.0
 40
1.20241268959467
100
AcDbArc
 50
0.56058521134261
 51
43.56451315973909
  0
ARC
  5
27A
330
1F
100
AcDbEntity
  8
1
  6
Continuous
 62
     3
100
AcDbCircle
 10
77.8685315218838
 20
40.0011875775762
 30
0.0
 40
2.00044903182057
100
AcDbArc
 50
25.84350578010275
 51
87.68219968095734
  0
ARC
  5
27B
330
1F
100
AcDbEntity
  8
1
  6
Continuous
 62
     3
100
AcDbCircle
 10
-7.56222176108608
 20
6.5
 30
0.0
 40
18.93777823891394
100
AcDbArc
 50
159.9262581111497
 51
200.0737418888503
  0
ARC
  5
27C
330
1F
100
AcDbEntity
  8
1
  6
Continuous
 62
     3
100
AcDbCircle
 10
-7.56222176108598
 20
-6.50000000000001
 30
0.0
 40
18.93777823891404
100
AcDbArc
 50
159.9262581111497
 51
200.0737418888502
  0
ARC
  5
27D
330
1F
100
AcDbEntity
  8
1
  6
Continuous
 62
     3
100
AcDbCircle
 10
9.19300596556385
 20
6.5
 30
0.0
 40
18.80699403443615
100
AcDbArc
 50
339.7805904452208
 51
20.21940955477921
  0
ARC
  5
27E
330
1F
100
AcDbEntity
  8
1
  6
Continuous
 62
     3
100
AcDbCircle
 10
9.19300596556375
 20
-6.50000000000001
 30
0.0
 40
18.80699403443624
100
AcDbArc
 50
339.7805904452209
 51
20.21940955477914
  0
ARC
  5
27F
330
1F
100
AcDbEntity
  8
1
  6
Continuous
 62
     3
100
AcDbCircle
 10
-44.1371868036347
 20
16.2036115121098
 30
0.0
 40
0.2975203655381243
100
AcDbArc
 50
14.01915001406825
 51
85.00061246051924
  0
ARC
  5
280
330
1F
100
AcDbEntity
  8
1
  6
Continuous
 62
     3
100
AcDbCircle
 10
-48.848528137424
 20
24.8299057074525
 30
0.0
 40
1.0
100
AcDbArc
 50
0.0
 51
90.0
  0
ARC
  5
281
330
1F
100
AcDbEntity
  8
1
  6
Continuous
 62
     3
100
AcDbCircle
 10
-47.848528137424
 20
23.4973557796614
 30
0.0
 40
1.0
100
AcDbArc
 50
270.0
 51
0.0
  0
ARC
  5
282
330
1F
100
AcDbEntity
  8
1
  6
Continuous
 62
     3
100
AcDbCircle
 10
-48.348528137424
 20
35.9504118433137
 30
0.0
 40
1.5
100
AcDbArc
 50
0.0
 51
90.0
  0
ARC
  5
283
330
1F
100
AcDbEntity
  8
1
  6
Continuous
 62
     3
100
AcDbCircle
 10
-53.300031826878
 20
13.23334940806649
 30
0.0
 40
28.72656234435932
100
AcDbArc
 50
78.24377622812648
 51
90.0
  0
ARC
  5
284
330
1F
100
AcDbEntity
  8
1
  6
Continuous
 62
     3
100
AcDbCircle
 10
-47.992449103577
 20
38.40731796538969
 30
0.0
 40
3.000000000000069
100
AcDbArc
 50
43.34073130383712
 51
79.5253826184534
  0
ARC
  5
285
330
1F
100
AcDbEntity
  8
1
  6
Continuous
 62
     3
100
AcDbCircle
 10
-48.76726488053756
 20
39.288751725641
 30
0.0
 40
2.657262541099239
100
AcDbArc
 50
316.2258727620117
 51
35.04884041746659
  0
ARC
  5
286
330
1F
100
AcDbEntity
  8
1
  6
Continuous
 62
     3
100
AcDbCircle
 10
-60.848528137424
 20
24.8299057074525
 30
0.0
 40
1.0
100
AcDbArc
 50
90.0
 51
180.0
  0
ARC
  5
287
330
1F
100
AcDbEntity
  8
1
  6
Continuous
 62
     3
100
AcDbCircle
 10
-61.8523017357383
 20
23.4973557796614
 30
0.0
 40
1.0
100
AcDbArc
 50
180.0
 51
270.0
  0
ARC
  5
288
330
1F
100
AcDbEntity
  8
1
  6
Continuous
 62
     3
100
AcDbCircle
 10
-61.3523017357383
 20
35.9504118433137
 30
0.0
 40
1.5
100
AcDbArc
 50
90.0
 51
180.0
  0
ARC
  5
289
330
1F
100
AcDbEntity
  8
1
  6
Continuous
 62
     3
100
AcDbCircle
 10
-60.94704567929878
 20
39.288751725641
 30
0.0
 40
2.672138966191103
100
AcDbArc
 50
153.241031252684
 51
223.4692892150238
  0
ARC
  5
28A
330
1F
100
AcDbEntity
  8
1
  6
Continuous
 62
     3
100
AcDbCircle
 10
-51.5120223547573
 20
24.5632741087817
 30
0.0
 40
6.563274108782119
100
AcDbArc
 50
247.7235596339646
 51
292.2764403660354
  0
ARC
  5
28B
330
1F
100
AcDbEntity
  8
1
  6
Continuous
 62
     3
100
AcDbCircle
 10
-56.4841602957939
 20
24.5439002598218
 30
0.0
 40
6.543900259821585
100
AcDbArc
 50
247.6901858116549
 51
292.3098141883451
  0
ARC
  5
28C
330
1F
100
AcDbEntity
  8
1
  6
Continuous
 62
     3
100
AcDbCircle
 10
-51.5120223547573
 20
15.0769144398862
 30
0.0
 40
6.524434763783378
100
AcDbArc
 50
67.58376783218785
 51
112.4162321678122
  0
ARC
  5
28D
330
1F
100
AcDbEntity
  8
1
  6
Continuous
 62
     3
100
AcDbCircle
 10
-56.4841602957939
 20
15.1883345301965
 30
0.0
 40
6.420096324945919
100
AcDbArc
 50
67.23607678630951
 51
112.7639232136905
  0
ARC
  5
28E
102
{ACAD_REACTORS
330
31D
102
}
330
1F
100
AcDbEntity
  8
1
  6
Continuous
 62
     3
100
AcDbCircle
 10
67.8490690991594
 20
60.2232308692584
 30
0.0
 40
0.8253407712989228
100
AcDbArc
 50
59.34933204295172
 51
106.7914176871223
  0
ARC
  5
28F
102
{ACAD_REACTORS
330
325
102
}
330
1F
100
AcDbEntity
  8
1
  6
Continuous
 62
     3
100
AcDbCircle
 10
67.9123010592605
 20
57.1538744605308
 30
0.0
 40
0.5364705882351054
100
AcDbArc
 50
318.1896851042215
 51
0.0
  0
ARC
  5
290
102
{ACAD_REACTORS
330
325
102
}
330
1F
100
AcDbEntity
  8
1
  6
Continuous
 62
     3
100
AcDbCircle
 10
67.9123010592605
 20
56.4385803428837
 30
0.0
 40
0.5364705882352041
100
AcDbArc
 50
0.0
 51
41.81031489580228
  0
ARC
  5
291
102
{ACAD_REACTORS
330
327
102
}
330
1F
100
AcDbEntity
  8
1
  6
Continuous
 62
     3
100
AcDbCircle
 10
70.9523010592605
 20
56.0660313232759
 30
0.0
 40
0.82534077129883
100
AcDbArc
 50
59.34933204294906
 51
106.7914176871186
  0
ARC
  5
292
102
{ACAD_REACTORS
330
326
102
}
330
1F
100
AcDbEntity
  8
1
  6
Continuous
 62
     3
100
AcDbCircle
 10
68.6601219096752
 20
58.4345851578423
 30
0.0
 40
0.7886025107399236
100
AcDbArc
 50
299.159829349199
 51
340.1808645332337
  0
ARC
  5
293
102
{ACAD_REACTORS
330
331
102
}
330
1F
100
AcDbEntity
  8
1
  6
Continuous
 62
     3
100
AcDbCircle
 10
27.7531962233664
 20
58.6862328750466
 30
0.0
 40
9.2916438356166
100
AcDbArc
 50
0.0
 51
30.80958048222448
  0
ARC
  5
294
102
{ACAD_REACTORS
330
331
102
}
330
1F
100
AcDbEntity
  8
1
  6
Continuous
 62
     3
100
AcDbCircle
 10
27.5781962233664
 20
58.6862328750466
 30
0.0
 40
9.291643835616501
100
AcDbArc
 50
0.0
 51
19.23065317146115
  0
ARC
  5
295
102
{ACAD_REACTORS
330
331
102
}
330
1F
100
AcDbEntity
  8
1
  6
Continuous
 62
     3
100
AcDbCircle
 10
27.7531962233664
 20
58.6862328750466
 30
0.0
 40
9.291643835616465
100
AcDbArc
 50
329.1904195177754
 51
0.0
  0
ARC
  5
296
102
{ACAD_REACTORS
330
331
102
}
330
1F
100
AcDbEntity
  8
1
  6
Continuous
 62
     3
100
AcDbCircle
 10
27.5781962233664
 20
58.6862328750466
 30
0.0
 40
9.291643835616457
100
AcDbArc
 50
340.7693468285414
 51
0.0
  0
ARC
  5
297
102
{ACAD_REACTORS
330
321
102
}
330
1F
100
AcDbEntity
  8
1
  6
Continuous
 62
     3
100
AcDbCircle
 10
61.7595311837332
 20
62.6827044114992
 30
0.0
 40
0.7924493680820394
100
AcDbArc
 50
291.3768548660486
 51
329.8257344239553
  0
ARC
  5
298
330
1F
100
AcDbEntity
  8
1
  6
Continuous
 62
     3
100
AcDbCircle
 10
20.351471862577
 20
52.6485281374239
 30
0.0
 40
0.7999999999999048
100
AcDbArc
 50
270.0
 51
0.0
  0
ARC
  5
299
330
1F
100
AcDbEntity
  8
1
  6
Continuous
 62
     3
100
AcDbCircle
 10
20.351471862577
 20
65.0485281374239
 30
0.0
 40
0.8000000000000007
100
AcDbArc
 50
0.0
 51
90.0
  0
ARC
  5
29A
330
1F
100
AcDbEntity
  8
1
  6
Continuous
 62
     3
100
AcDbCircle
 10
8.9494308337089
 20
68.848528137424
 30
0.0
 40
2.999999999999874
100
AcDbArc
 50
225.5846914028136
 51
270.0
  0
ARC
  5
29B
330
1F
100
AcDbEntity
  8
1
  6
Continuous
 62
     3
100
AcDbCircle
 10
8.9494308337089
 20
48.848528137424
 30
0.0
 40
3.0
100
AcDbArc
 50
90.0
 51
134.4153085971901
  0
ARC
  5
29C
330
1F
100
AcDbEntity
  8
1
  6
Continuous
 62
     3
100
AcDbCircle
 10
-5.55015936030304
 20
72.0354407345423
 30
0.0
 40
3.000000000000224
100
AcDbArc
 50
224.9999999999947
 51
289.6230664748491
  0
ARC
  5
29D
330
1F
100
AcDbEntity
  8
1
  6
Continuous
 62
     3
100
AcDbCircle
 10
-14.0354407345421
 20
63.5501593603037
 30
0.0
 40
3.000000000000171
100
AcDbArc
 50
340.376933525154
 51
44.99999999999456
  0
ARC
  5
29E
330
1F
100
AcDbEntity
  8
1
  6
Continuous
 62
     3
100
AcDbCircle
 10
-13.9856385079852
 20
15.0000000000001
 30
0.0
 40
1.5
100
AcDbArc
 50
90.0
 51
180.0
  0
ARC
  5
29F
330
1F
100
AcDbEntity
  8
1
  6
Continuous
 62
     3
100
AcDbCircle
 10
-9.32878425849299
 20
14.0009021627707
 30
0.0
 40
0.5
100
AcDbArc
 50
90.0
 51
180.0
  0
ARC
  5
2A0
330
1F
100
AcDbEntity
  8
1
  6
Continuous
 62
     3
100
AcDbCircle
 10
-64.4263346739018
 20
15.7000000000001
 30
0.0
 40
0.7999999999998995
100
AcDbArc
 50
90.0
 51
180.0
  0
ARC
  5
2A1
330
1F
100
AcDbEntity
  8
1
  6
Continuous
 62
     3
100
AcDbCircle
 10
-68.4689753610211
 20
15.5
 30
0.0
 40
1.0
100
AcDbArc
 50
90.0
 51
180.0
  0
ARC
  5
2A2
330
1F
100
AcDbEntity
  8
1
  6
Continuous
 62
     3
100
AcDbCircle
 10
-63.3121211115287
 20
14.0009021627707
 30
0.0
 40
0.5
100
AcDbArc
 50
90.0
 51
180.0
  0
ARC
  5
2A3
102
{ACAD_REACTORS
330
31D
102
}
330
1F
100
AcDbEntity
  8
1
  6
Continuous
 62
     3
100
AcDbCircle
 10
67.6106377266103
 20
61.9667602810233
 30
0.0
 40
0.3576470588235026
100
AcDbArc
 50
90.0
 51
180.0
  0
ARC
  5
2A4
102
{ACAD_REACTORS
330
31D
102
}
330
1F
100
AcDbEntity
  8
1
  6
Continuous
 62
     3
100
AcDbCircle
 10
68.0875004717084
 20
61.9667602810233
 30
0.0
 40
0.3576470588235026
100
AcDbArc
 50
0.0
 51
90.0
  0
ARC
  5
2A5
102
{ACAD_REACTORS
330
31D
102
}
330
1F
100
AcDbEntity
  8
1
  6
Continuous
 62
     3
100
AcDbCircle
 10
68.0875004717084
 20
59.6420543986702
 30
0.0
 40
0.357647058823396
100
AcDbArc
 50
270.0
 51
0.0
  0
ARC
  5
2A6
102
{ACAD_REACTORS
330
31D
102
}
330
1F
100
AcDbEntity
  8
1
  6
Continuous
 62
     3
100
AcDbCircle
 10
67.6106377266103
 20
59.6420543986702
 30
0.0
 40
0.3576470588235026
100
AcDbArc
 50
180.0
 51
270.0
  0
ARC
  5
2A7
102
{ACAD_REACTORS
330
31D
102
}
330
1F
100
AcDbEntity
  8
1
  6
Continuous
 62
     3
100
AcDbCircle
 10
67.7894612560222
 20
59.820877928082
 30
0.0
 40
0.1788235294118863
100
AcDbArc
 50
180.0
 51
270.0
  0
ARC
  5
2A8
102
{ACAD_REACTORS
330
31D
102
}
330
1F
100
AcDbEntity
  8
1
  6
Continuous
 62
     3
100
AcDbCircle
 10
67.9086769422967
 20
59.820877928082
 30
0.0
 40
0.178823529411801
100
AcDbArc
 50
270.0
 51
0.0
  0
ARC
  5
2A9
102
{ACAD_REACTORS
330
31D
102
}
330
1F
100
AcDbEntity
  8
1
  6
Continuous
 62
     3
100
AcDbCircle
 10
67.9086769422967
 20
61.7879367516116
 30
0.0
 40
0.1788235294117015
100
AcDbArc
 50
0.0
 51
90.0
  0
ARC
  5
2AA
102
{ACAD_REACTORS
330
31D
102
}
330
1F
100
AcDbEntity
  8
1
  6
Continuous
 62
     3
100
AcDbCircle
 10
67.7894612560222
 20
61.7879367516116
 30
0.0
 40
0.1788235294116944
100
AcDbArc
 50
90.0
 51
180.0
  0
ARC
  5
2AB
102
{ACAD_REACTORS
330
31D
102
}
330
1F
100
AcDbEntity
  8
1
  6
Continuous
 62
     3
100
AcDbCircle
 10
67.9086769422967
 20
60.4467602810233
 30
0.0
 40
0.1788235294117015
100
AcDbArc
 50
0.0
 51
90.0
  0
ARC
  5
2AC
102
{ACAD_REACTORS
330
31D
102
}
330
1F
100
AcDbEntity
  8
1
  6
Continuous
 62
     3
100
AcDbCircle
 10
67.7894612560221
 20
60.4467602810233
 30
0.0
 40
0.1788235294117015
100
AcDbArc
 50
90.0
 51
180.0
  0
ARC
  5
2AD
102
{ACAD_REACTORS
330
31D
102
}
330
1F
100
AcDbEntity
  8
1
  6
Continuous
 62
     3
100
AcDbCircle
 10
68.0875004717084
 20
60.625583810435
 30
0.0
 40
0.3576470588235026
100
AcDbArc
 50
0.0
 51
59.34933204294452
  0
ARC
  5
2AE
102
{ACAD_REACTORS
330
325
102
}
330
1F
100
AcDbEntity
  8
1
  6
Continuous
 62
     3
100
AcDbCircle
 10
67.6142618435741
 20
57.8095607350407
 30
0.0
 40
0.3576470588235026
100
AcDbArc
 50
90.0
 51
180.0
  0
ARC
  5
2AF
102
{ACAD_REACTORS
330
325
102
}
330
1F
100
AcDbEntity
  8
1
  6
Continuous
 62
     3
100
AcDbCircle
 10
68.0911245886721
 20
57.8095607350407
 30
0.0
 40
0.357647058823602
100
AcDbArc
 50
0.0
 51
90.0
  0
ARC
  5
2B0
102
{ACAD_REACTORS
330
325
102
}
330
1F
100
AcDbEntity
  8
1
  6
Continuous
 62
     3
100
AcDbCircle
 10
68.0911245886721
 20
55.4848548526876
 30
0.0
 40
0.357647058823396
100
AcDbArc
 50
270.0
 51
0.0
  0
ARC
  5
2B1
102
{ACAD_REACTORS
330
325
102
}
330
1F
100
AcDbEntity
  8
1
  6
Continuous
 62
     3
100
AcDbCircle
 10
67.6142618435741
 20
55.4848548526876
 30
0.0
 40
0.357647058823602
100
AcDbArc
 50
180.0
 51
270.0
  0
ARC
  5
2B2
102
{ACAD_REACTORS
330
325
102
}
330
1F
100
AcDbEntity
  8
1
  6
Continuous
 62
     3
100
AcDbCircle
 10
67.793085372986
 20
55.6636783820994
 30
0.0
 40
0.1788235294119005
100
AcDbArc
 50
180.0
 51
270.0
  0
ARC
  5
2B3
102
{ACAD_REACTORS
330
325
102
}
330
1F
100
AcDbEntity
  8
1
  6
Continuous
 62
     3
100
AcDbCircle
 10
67.9123010592605
 20
55.6636783820994
 30
0.0
 40
0.178823529411801
100
AcDbArc
 50
270.0
 51
0.0
  0
ARC
  5
2B4
102
{ACAD_REACTORS
330
325
102
}
330
1F
100
AcDbEntity
  8
1
  6
Continuous
 62
     3
100
AcDbCircle
 10
67.9123010592605
 20
56.4385803428837
 30
0.0
 40
0.1788235294116021
100
AcDbArc
 50
0.0
 51
90.0
  0
ARC
  5
2B5
102
{ACAD_REACTORS
330
325
102
}
330
1F
100
AcDbEntity
  8
1
  6
Continuous
 62
     3
100
AcDbCircle
 10
67.9123010592605
 20
57.1538744605308
 30
0.0
 40
0.1788235294117015
100
AcDbArc
 50
270.0
 51
0.0
  0
ARC
  5
2B6
102
{ACAD_REACTORS
330
325
102
}
330
1F
100
AcDbEntity
  8
1
  6
Continuous
 62
     3
100
AcDbCircle
 10
67.9123010592605
 20
57.630737205629
 30
0.0
 40
0.1788235294116021
100
AcDbArc
 50
0.0
 51
90.0
  0
ARC
  5
2B7
102
{ACAD_REACTORS
330
325
102
}
330
1F
100
AcDbEntity
  8
1
  6
Continuous
 62
     3
100
AcDbCircle
 10
67.793085372986
 20
57.630737205629
 30
0.0
 40
0.1788235294116944
100
AcDbArc
 50
90.0
 51
180.0
  0
ARC
  5
2B8
102
{ACAD_REACTORS
330
327
102
}
330
1F
100
AcDbEntity
  8
1
  6
Continuous
 62
     3
100
AcDbCircle
 10
70.7138696867115
 20
57.8095607350407
 30
0.0
 40
0.3576470588235026
100
AcDbArc
 50
90.0
 51
180.0
  0
ARC
  5
2B9
102
{ACAD_REACTORS
330
327
102
}
330
1F
100
AcDbEntity
  8
1
  6
Continuous
 62
     3
100
AcDbCircle
 10
71.1907324318096
 20
57.8095607350407
 30
0.0
 40
0.3576470588234031
100
AcDbArc
 50
0.0
 51
90.0
  0
ARC
  5
2BA
102
{ACAD_REACTORS
330
327
102
}
330
1F
100
AcDbEntity
  8
1
  6
Continuous
 62
     3
100
AcDbCircle
 10
71.1907324318096
 20
55.4848548526876
 30
0.0
 40
0.357647058823396
100
AcDbArc
 50
270.0
 51
0.0
  0
ARC
  5
2BB
102
{ACAD_REACTORS
330
327
102
}
330
1F
100
AcDbEntity
  8
1
  6
Continuous
 62
     3
100
AcDbCircle
 10
70.7138696867115
 20
55.4848548526876
 30
0.0
 40
0.3576470588235026
100
AcDbArc
 50
180.0
 51
270.0
  0
ARC
  5
2BC
102
{ACAD_REACTORS
330
327
102
}
330
1F
100
AcDbEntity
  8
1
  6
Continuous
 62
     3
100
AcDbCircle
 10
70.8926932161233
 20
55.6636783820994
 30
0.0
 40
0.178823529411801
100
AcDbArc
 50
180.0
 51
270.0
  0
ARC
  5
2BD
102
{ACAD_REACTORS
330
327
102
}
330
1F
100
AcDbEntity
  8
1
  6
Continuous
 62
     3
100
AcDbCircle
 10
71.0119089023979
 20
55.6636783820994
 30
0.0
 40
0.178823529411801
100
AcDbArc
 50
270.0
 51
0.0
  0
ARC
  5
2BE
102
{ACAD_REACTORS
330
327
102
}
330
1F
100
AcDbEntity
  8
1
  6
Continuous
 62
     3
100
AcDbCircle
 10
71.0119089023979
 20
57.630737205629
 30
0.0
 40
0.1788235294116873
100
AcDbArc
 50
0.0
 51
90.0
  0
ARC
  5
2BF
102
{ACAD_REACTORS
330
327
102
}
330
1F
100
AcDbEntity
  8
1
  6
Continuous
 62
     3
100
AcDbCircle
 10
70.8926932161233
 20
57.630737205629
 30
0.0
 40
0.1788235294116944
100
AcDbArc
 50
90.0
 51
180.0
  0
ARC
  5
2C0
102
{ACAD_REACTORS
330
327
102
}
330
1F
100
AcDbEntity
  8
1
  6
Continuous
 62
     3
100
AcDbCircle
 10
71.0119089023979
 20
56.2895607350407
 30
0.0
 40
0.1788235294116873
100
AcDbArc
 50
0.0
 51
90.0
  0
ARC
  5
2C1
102
{ACAD_REACTORS
330
327
102
}
330
1F
100
AcDbEntity
  8
1
  6
Continuous
 62
     3
100
AcDbCircle
 10
70.8926932161232
 20
56.2895607350407
 30
0.0
 40
0.1788235294117015
100
AcDbArc
 50
90.0
 51
180.0
  0
ARC
  5
2C2
102
{ACAD_REACTORS
330
327
102
}
330
1F
100
AcDbEntity
  8
1
  6
Continuous
 62
     3
100
AcDbCircle
 10
71.1907324318096
 20
56.4683842644524
 30
0.0
 40
0.3576470588234031
100
AcDbArc
 50
0.0
 51
59.34933204295824
  0
ARC
  5
2C3
102
{ACAD_REACTORS
330
324
102
}
330
1F
100
AcDbEntity
  8
1
  6
Continuous
 62
     3
100
AcDbCircle
 10
65.9905673936555
 20
57.8095607350407
 30
0.0
 40
0.357647058823602
100
AcDbArc
 50
0.0
 51
90.0
  0
ARC
  5
2C4
102
{ACAD_REACTORS
330
324
102
}
330
1F
100
AcDbEntity
  8
1
  6
Continuous
 62
     3
100
AcDbCircle
 10
65.5137046485575
 20
57.8095607350407
 30
0.0
 40
0.3576470588235026
100
AcDbArc
 50
90.0
 51
180.0
  0
ARC
  5
2C5
102
{ACAD_REACTORS
330
324
102
}
330
1F
100
AcDbEntity
  8
1
  6
Continuous
 62
     3
100
AcDbCircle
 10
65.9905673936555
 20
55.4848548526876
 30
0.0
 40
0.357647058823396
100
AcDbArc
 50
270.0
 51
0.0
  0
ARC
  5
2C6
102
{ACAD_REACTORS
330
324
102
}
330
1F
100
AcDbEntity
  8
1
  6
Continuous
 62
     3
100
AcDbCircle
 10
65.5137046485575
 20
55.4848548526876
 30
0.0
 40
0.357647058823602
100
AcDbArc
 50
180.0
 51
270.0
  0
ARC
  5
2C7
102
{ACAD_REACTORS
330
324
102
}
330
1F
100
AcDbEntity
  8
1
  6
Continuous
 62
     3
100
AcDbCircle
 10
65.6925281779693
 20
55.6636783820994
 30
0.0
 40
0.1788235294117868
100
AcDbArc
 50
180.0
 51
270.0
  0
ARC
  5
2C8
102
{ACAD_REACTORS
330
324
102
}
330
1F
100
AcDbEntity
  8
1
  6
Continuous
 62
     3
100
AcDbCircle
 10
65.8117438642439
 20
55.6636783820994
 30
0.0
 40
0.178823529411801
100
AcDbArc
 50
270.0
 51
0.0
  0
ARC
  5
2C9
102
{ACAD_REACTORS
330
324
102
}
330
1F
100
AcDbEntity
  8
1
  6
Continuous
 62
     3
100
AcDbCircle
 10
65.6925281779693
 20
57.630737205629
 30
0.0
 40
0.1788235294116944
100
AcDbArc
 50
90.0
 51
180.0
  0
ARC
  5
2CA
102
{ACAD_REACTORS
330
324
102
}
330
1F
100
AcDbEntity
  8
1
  6
Continuous
 62
     3
100
AcDbCircle
 10
65.8117438642439
 20
57.630737205629
 30
0.0
 40
0.1788235294116021
100
AcDbArc
 50
0.0
 51
90.0
  0
ARC
  5
2CB
102
{ACAD_REACTORS
330
324
102
}
330
1F
100
AcDbEntity
  8
1
  6
Continuous
 62
     3
100
AcDbCircle
 10
65.6714251507053
 20
57.2302429927207
 30
0.0
 40
0.1577205021477965
100
AcDbArc
 50
180.0
 51
235.2612837876079
  0
ARC
  5
2CC
102
{ACAD_REACTORS
330
324
102
}
330
1F
100
AcDbEntity
  8
1
  6
Continuous
 62
     3
100
AcDbCircle
 10
65.8328468915076
 20
56.3026039675566
 30
0.0
 40
0.157720502147896
100
AcDbArc
 50
0.0
 51
55.26128378762851
  0
ARC
  5
2CD
102
{ACAD_REACTORS
330
324
102
}
330
1F
100
AcDbEntity
  8
1
  6
Continuous
 62
     3
100
AcDbCircle
 10
65.8356228204987
 20
56.300679046769
 30
0.0
 40
0.5125916319803991
100
AcDbArc
 50
0.0
 51
55.26128378763585
  0
ARC
  5
2CE
102
{ACAD_REACTORS
330
324
102
}
330
1F
100
AcDbEntity
  8
1
  6
Continuous
 62
     3
100
AcDbCircle
 10
65.6686492217142
 20
57.2321679135083
 30
0.0
 40
0.5125916319802997
100
AcDbArc
 50
180.0
 51
235.261283787629
  0
ARC
  5
2CF
102
{ACAD_REACTORS
330
322
102
}
330
1F
100
AcDbEntity
  8
1
  6
Continuous
 62
     3
100
AcDbCircle
 10
62.8965114085
 20
57.8095607350407
 30
0.0
 40
0.357647058823602
100
AcDbArc
 50
0.0
 51
90.0
  0
ARC
  5
2D0
102
{ACAD_REACTORS
330
322
102
}
330
1F
100
AcDbEntity
  8
1
  6
Continuous
 62
     3
100
AcDbCircle
 10
62.4196486634019
 20
57.8095607350407
 30
0.0
 40
0.3576470588235026
100
AcDbArc
 50
90.0
 51
180.0
  0
ARC
  5
2D1
102
{ACAD_REACTORS
330
322
102
}
330
1F
100
AcDbEntity
  8
1
  6
Continuous
 62
     3
100
AcDbCircle
 10
62.8965114085
 20
55.4848548526876
 30
0.0
 40
0.357647058823396
100
AcDbArc
 50
270.0
 51
0.0
  0
ARC
  5
2D2
102
{ACAD_REACTORS
330
322
102
}
330
1F
100
AcDbEntity
  8
1
  6
Continuous
 62
     3
100
AcDbCircle
 10
62.4196486634019
 20
55.4848548526876
 30
0.0
 40
0.357647058823602
100
AcDbArc
 50
180.0
 51
270.0
  0
ARC
  5
2D3
102
{ACAD_REACTORS
330
322
102
}
330
1F
100
AcDbEntity
  8
1
  6
Continuous
 62
     3
100
AcDbCircle
 10
62.5984721928138
 20
55.6636783820994
 30
0.0
 40
0.1788235294119005
100
AcDbArc
 50
180.0
 51
270.0
  0
ARC
  5
2D4
102
{ACAD_REACTORS
330
322
102
}
330
1F
100
AcDbEntity
  8
1
  6
Continuous
 62
     3
100
AcDbCircle
 10
62.7176878790884
 20
55.6636783820994
 30
0.0
 40
0.178823529411801
100
AcDbArc
 50
270.0
 51
0.0
  0
ARC
  5
2D5
102
{ACAD_REACTORS
330
322
102
}
330
1F
100
AcDbEntity
  8
1
  6
Continuous
 62
     3
100
AcDbCircle
 10
62.5984721928138
 20
57.630737205629
 30
0.0
 40
0.1788235294116944
100
AcDbArc
 50
90.0
 51
180.0
  0
ARC
  5
2D6
102
{ACAD_REACTORS
330
322
102
}
330
1F
100
AcDbEntity
  8
1
  6
Continuous
 62
     3
100
AcDbCircle
 10
62.7176878790884
 20
57.630737205629
 30
0.0
 40
0.178823529411595
100
AcDbArc
 50
0.0
 51
90.0
  0
ARC
  5
2D7
102
{ACAD_REACTORS
330
322
102
}
330
1F
100
AcDbEntity
  8
1
  6
Continuous
 62
     3
100
AcDbCircle
 10
62.5773691655498
 20
57.2302429927207
 30
0.0
 40
0.157720502147896
100
AcDbArc
 50
180.0
 51
235.26128378761
  0
ARC
  5
2D8
102
{ACAD_REACTORS
330
322
102
}
330
1F
100
AcDbEntity
  8
1
  6
Continuous
 62
     3
100
AcDbCircle
 10
62.7387909063522
 20
56.3026039675566
 30
0.0
 40
0.1577205021477965
100
AcDbArc
 50
0.0
 51
55.26128378762851
  0
ARC
  5
2D9
102
{ACAD_REACTORS
330
322
102
}
330
1F
100
AcDbEntity
  8
1
  6
Continuous
 62
     3
100
AcDbCircle
 10
62.7415668353432
 20
56.300679046769
 30
0.0
 40
0.5125916319803991
100
AcDbArc
 50
0.0
 51
55.26128378763585
  0
ARC
  5
2DA
102
{ACAD_REACTORS
330
322
102
}
330
1F
100
AcDbEntity
  8
1
  6
Continuous
 62
     3
100
AcDbCircle
 10
62.5745932365587
 20
57.2321679135083
 30
0.0
 40
0.5125916319803991
100
AcDbArc
 50
180.0
 51
235.261283787629
  0
ARC
  5
2DB
102
{ACAD_REACTORS
330
323
102
}
330
1F
100
AcDbEntity
  8
1
  6
Continuous
 62
     3
100
AcDbCircle
 10
63.9666766559797
 20
55.4848548526876
 30
0.0
 40
0.3576470588235949
100
AcDbArc
 50
180.0
 51
270.0
  0
ARC
  5
2DC
102
{ACAD_REACTORS
330
323
102
}
330
1F
100
AcDbEntity
  8
1
  6
Continuous
 62
     3
100
AcDbCircle
 10
64.1455001853915
 20
55.6636783820994
 30
0.0
 40
0.178823529411801
100
AcDbArc
 50
180.0
 51
270.0
  0
ARC
  5
2DD
102
{ACAD_REACTORS
330
323
102
}
330
1F
100
AcDbEntity
  8
1
  6
Continuous
 62
     3
100
AcDbCircle
 10
64.2647158716661
 20
55.6636783820994
 30
0.0
 40
0.178823529411801
100
AcDbArc
 50
270.0
 51
0.0
  0
ARC
  5
2DE
102
{ACAD_REACTORS
330
323
102
}
330
1F
100
AcDbEntity
  8
1
  6
Continuous
 62
     3
100
AcDbCircle
 10
64.4435394010777
 20
55.4848548526876
 30
0.0
 40
0.357647058823396
100
AcDbArc
 50
270.0
 51
0.0
  0
ARC
  5
2DF
102
{ACAD_REACTORS
330
332
102
}
330
1F
100
AcDbEntity
  8
1
  6
Continuous
 62
     3
100
AcDbCircle
 10
32.3648400589828
 20
62.8062328750467
 30
0.0
 40
0.3200000000000998
100
AcDbArc
 50
90.0
 51
180.0
  0
ARC
  5
2E0
102
{ACAD_REACTORS
330
332
102
}
330
1F
100
AcDbEntity
  8
1
  6
Continuous
 62
     3
100
AcDbCircle
 10
32.3648400589828
 20
62.2462328750467
 30
0.0
 40
0.3199999999999008
100
AcDbArc
 50
180.0
 51
270.0
  0
ARC
  5
2E1
102
{ACAD_REACTORS
330
332
102
}
330
1F
100
AcDbEntity
  8
1
  6
Continuous
 62
     3
100
AcDbCircle
 10
34.8448400589829
 20
62.2462328750467
 30
0.0
 40
0.3199999999998013
100
AcDbArc
 50
270.0
 51
0.0
  0
ARC
  5
2E2
102
{ACAD_REACTORS
330
332
102
}
330
1F
100
AcDbEntity
  8
1
  6
Continuous
 62
     3
100
AcDbCircle
 10
34.8448400589829
 20
62.8062328750467
 30
0.0
 40
0.3199999999999932
100
AcDbArc
 50
0.0
 51
90.0
  0
ARC
  5
2E3
102
{ACAD_REACTORS
330
333
102
}
330
1F
100
AcDbEntity
  8
1
  6
Continuous
 62
     3
100
AcDbCircle
 10
34.8448400589829
 20
55.1262328750468
 30
0.0
 40
0.3199999999999932
100
AcDbArc
 50
0.0
 51
90.0
  0
ARC
  5
2E4
102
{ACAD_REACTORS
330
333
102
}
330
1F
100
AcDbEntity
  8
1
  6
Continuous
 62
     3
100
AcDbCircle
 10
34.8448400589829
 20
54.5662328750466
 30
0.0
 40
0.3199999999999008
100
AcDbArc
 50
270.0
 51
0.0
  0
ARC
  5
2E5
102
{ACAD_REACTORS
330
333
102
}
330
1F
100
AcDbEntity
  8
1
  6
Continuous
 62
     3
100
AcDbCircle
 10
32.3648400589828
 20
54.5662328750466
 30
0.0
 40
0.3199999999999008
100
AcDbArc
 50
180.0
 51
270.0
  0
ARC
  5
2E6
102
{ACAD_REACTORS
330
333
102
}
330
1F
100
AcDbEntity
  8
1
  6
Continuous
 62
     3
100
AcDbCircle
 10
32.3648400589828
 20
55.1262328750468
 30
0.0
 40
0.3199999999997942
100
AcDbArc
 50
90.0
 51
180.0
  0
ARC
  5
2E7
102
{ACAD_REACTORS
330
331
102
}
330
1F
100
AcDbEntity
  8
1
  6
Continuous
 62
     3
100
AcDbCircle
 10
35.6648400589829
 20
63.4043123543055
 30
0.0
 40
0.0800000000001296
100
AcDbArc
 50
30.80958048219559
 51
180.0
  0
ARC
  5
2E8
102
{ACAD_REACTORS
330
331
102
}
330
1F
100
AcDbEntity
  8
1
  6
Continuous
 62
     3
100
AcDbCircle
 10
36.2569490154774
 20
61.7137015163792
 30
0.0
 40
0.0999999999999964
100
AcDbArc
 50
19.2306531715506
 51
103.3924977537434
  0
ARC
  5
2E9
102
{ACAD_REACTORS
330
331
102
}
330
1F
100
AcDbEntity
  8
1
  6
Continuous
 62
     3
100
AcDbCircle
 10
35.6648400589829
 20
53.9681533957879
 30
0.0
 40
0.0799999999999983
100
AcDbArc
 50
180.0
 51
329.1904195176658
  0
ARC
  5
2EA
102
{ACAD_REACTORS
330
331
102
}
330
1F
100
AcDbEntity
  8
1
  6
Continuous
 62
     3
100
AcDbCircle
 10
36.2569490154774
 20
55.6587642337143
 30
0.0
 40
0.1000000000000607
100
AcDbArc
 50
256.6075022462566
 51
340.769346828522
  0
ARC
  5
2EB
102
{ACAD_REACTORS
330
332
102
}
330
1F
100
AcDbEntity
  8
1
  6
Continuous
 62
     3
100
AcDbCircle
 10
34.6298400589829
 20
62.5912328750466
 30
0.0
 40
0.2999999999999972
100
AcDbArc
 50
0.0
 51
90.0
  0
ARC
  5
2EC
102
{ACAD_REACTORS
330
332
102
}
330
1F
100
AcDbEntity
  8
1
  6
Continuous
 62
     3
100
AcDbCircle
 10
34.6298400589829
 20
62.4612328750467
 30
0.0
 40
0.2999999999998977
100
AcDbArc
 50
270.0
 51
0.0
  0
ARC
  5
2ED
102
{ACAD_REACTORS
330
332
102
}
330
1F
100
AcDbEntity
  8
1
  6
Continuous
 62
     3
100
AcDbCircle
 10
32.579840058983
 20
62.5912328750466
 30
0.0
 40
0.3000000000003027
100
AcDbArc
 50
90.0
 51
180.0
  0
ARC
  5
2EE
102
{ACAD_REACTORS
330
332
102
}
330
1F
100
AcDbEntity
  8
1
  6
Continuous
 62
     3
100
AcDbCircle
 10
32.579840058983
 20
62.4612328750467
 30
0.0
 40
0.3000000000001037
100
AcDbArc
 50
180.0
 51
270.0
  0
ARC
  5
2EF
102
{ACAD_REACTORS
330
333
102
}
330
1F
100
AcDbEntity
  8
1
  6
Continuous
 62
     3
100
AcDbCircle
 10
34.6298400589829
 20
54.9112328750468
 30
0.0
 40
0.2999999999999972
100
AcDbArc
 50
359.999999999943
 51
90.0
  0
ARC
  5
2F0
102
{ACAD_REACTORS
330
333
102
}
330
1F
100
AcDbEntity
  8
1
  6
Continuous
 62
     3
100
AcDbCircle
 10
34.6298400589829
 20
54.7812328750466
 30
0.0
 40
0.2999999999998977
100
AcDbArc
 50
270.0
 51
0.0
  0
ARC
  5
2F1
102
{ACAD_REACTORS
330
333
102
}
330
1F
100
AcDbEntity
  8
1
  6
Continuous
 62
     3
100
AcDbCircle
 10
32.579840058983
 20
54.9112328750468
 30
0.0
 40
0.2999999999997982
100
AcDbArc
 50
90.0
 51
180.000000000057
  0
ARC
  5
2F2
102
{ACAD_REACTORS
330
333
102
}
330
1F
100
AcDbEntity
  8
1
  6
Continuous
 62
     3
100
AcDbCircle
 10
32.579840058983
 20
54.7812328750466
 30
0.0
 40
0.3000000000001037
100
AcDbArc
 50
180.0
 51
270.0
  0
ARC
  5
2F3
102
{ACAD_REACTORS
330
333
102
}
330
1F
100
AcDbEntity
  8
1
  6
Continuous
 62
     3
100
AcDbCircle
 10
33.9493317980723
 20
55.0612328750466
 30
0.0
 40
0.1500000000001975
100
AcDbArc
 50
90.0
 51
147.2647737278278
  0
ARC
  5
2F4
102
{ACAD_REACTORS
330
333
102
}
330
1F
100
AcDbEntity
  8
1
  6
Continuous
 62
     3
100
AcDbCircle
 10
33.0369673367909
 20
54.6312328750468
 30
0.0
 40
0.1500000000000981
100
AcDbArc
 50
270.0
 51
327.2196945237088
  0
ARC
  5
2F5
102
{ACAD_REACTORS
330
333
102
}
330
1F
100
AcDbEntity
  8
1
  6
Continuous
 62
     3
100
AcDbCircle
 10
33.8383934583786
 20
55.2662328750469
 30
0.0
 40
0.1799999999997937
100
AcDbArc
 50
90.0
 51
147.2196945237607
  0
ARC
  5
2F6
102
{ACAD_REACTORS
330
333
102
}
330
1F
100
AcDbEntity
  8
1
  6
Continuous
 62
     3
100
AcDbCircle
 10
33.1488107550406
 20
54.4262328750466
 30
0.0
 40
0.1799999999999002
100
AcDbArc
 50
270.0
 51
327.2647737279399
  0
ARC
  5
2F7
102
{ACAD_REACTORS
330
31C
102
}
330
1F
100
AcDbEntity
  8
1
  6
Continuous
 62
     3
100
AcDbCircle
 10
69.3408575926204
 20
61.7902430078613
 30
0.0
 40
0.1789882620008996
100
AcDbArc
 50
90.0
 51
180.0
  0
ARC
  5
2F8
102
{ACAD_REACTORS
330
31C
102
}
330
1F
100
AcDbEntity
  8
1
  6
Continuous
 62
     3
100
AcDbCircle
 10
69.4601831006212
 20
61.7902430078613
 30
0.0
 40
0.1789882620008996
100
AcDbArc
 50
0.0
 51
90.0
  0
ARC
  5
2F9
102
{ACAD_REACTORS
330
31C
102
}
330
1F
100
AcDbEntity
  8
1
  6
Continuous
 62
     3
100
AcDbCircle
 10
69.4601831006212
 20
59.8213721258497
 30
0.0
 40
0.1789882620008996
100
AcDbArc
 50
270.0
 51
0.0
  0
ARC
  5
2FA
102
{ACAD_REACTORS
330
31C
102
}
330
1F
100
AcDbEntity
  8
1
  6
Continuous
 62
     3
100
AcDbCircle
 10
69.3408575926204
 20
59.8213721258497
 30
0.0
 40
0.1789882620010985
100
AcDbArc
 50
180.0
 51
270.0
  0
ARC
  5
2FB
102
{ACAD_REACTORS
330
31C
102
}
330
1F
100
AcDbEntity
  8
1
  6
Continuous
 62
     3
100
AcDbCircle
 10
69.1618693306193
 20
59.6423838638488
 30
0.0
 40
0.3579765240020976
100
AcDbArc
 50
180.0
 51
270.0
  0
ARC
  5
2FC
102
{ACAD_REACTORS
330
31C
102
}
330
1F
100
AcDbEntity
  8
1
  6
Continuous
 62
     3
100
AcDbCircle
 10
69.6391713626221
 20
59.6423838638488
 30
0.0
 40
0.3579765240019981
100
AcDbArc
 50
270.0
 51
0.0
  0
ARC
  5
2FD
102
{ACAD_REACTORS
330
31C
102
}
330
1F
100
AcDbEntity
  8
1
  6
Continuous
 62
     3
100
AcDbCircle
 10
69.6391713626221
 20
61.9692312698622
 30
0.0
 40
0.3579765240020123
100
AcDbArc
 50
0.0
 51
90.0
  0
ARC
  5
2FE
102
{ACAD_REACTORS
330
31C
102
}
330
1F
100
AcDbEntity
  8
1
  6
Continuous
 62
     3
100
AcDbCircle
 10
69.1618693306193
 20
61.9692312698622
 30
0.0
 40
0.3579765240019981
100
AcDbArc
 50
90.0
 51
180.0
  0
ARC
  5
2FF
102
{ACAD_REACTORS
330
31B
102
}
330
1F
100
AcDbEntity
  8
1
  6
Continuous
 62
     3
100
AcDbCircle
 10
70.8920891966293
 20
61.7902430078613
 30
0.0
 40
0.1789882620008996
100
AcDbArc
 50
90.0
 51
180.0
  0
ARC
  5
300
102
{ACAD_REACTORS
330
31B
102
}
330
1F
100
AcDbEntity
  8
1
  6
Continuous
 62
     3
100
AcDbCircle
 10
71.0114147046301
 20
61.7902430078613
 30
0.0
 40
0.1789882620008996
100
AcDbArc
 50
0.0
 51
90.0
  0
ARC
  5
301
102
{ACAD_REACTORS
330
31B
102
}
330
1F
100
AcDbEntity
  8
1
  6
Continuous
 62
     3
100
AcDbCircle
 10
71.0114147046301
 20
59.8213721258497
 30
0.0
 40
0.1789882620008996
100
AcDbArc
 50
270.0
 51
0.0
  0
ARC
  5
302
102
{ACAD_REACTORS
330
31B
102
}
330
1F
100
AcDbEntity
  8
1
  6
Continuous
 62
     3
100
AcDbCircle
 10
70.8920891966293
 20
59.8213721258497
 30
0.0
 40
0.1789882620010985
100
AcDbArc
 50
180.0
 51
270.0
  0
ARC
  5
303
102
{ACAD_REACTORS
330
31B
102
}
330
1F
100
AcDbEntity
  8
1
  6
Continuous
 62
     3
100
AcDbCircle
 10
70.7131009346282
 20
59.6423838638488
 30
0.0
 40
0.3579765240019981
100
AcDbArc
 50
180.0
 51
270.0
  0
ARC
  5
304
102
{ACAD_REACTORS
330
31B
102
}
330
1F
100
AcDbEntity
  8
1
  6
Continuous
 62
     3
100
AcDbCircle
 10
71.190402966631
 20
59.6423838638488
 30
0.0
 40
0.3579765240019981
100
AcDbArc
 50
270.0
 51
0.0
  0
ARC
  5
305
102
{ACAD_REACTORS
330
31B
102
}
330
1F
100
AcDbEntity
  8
1
  6
Continuous
 62
     3
100
AcDbCircle
 10
71.190402966631
 20
61.9692312698622
 30
0.0
 40
0.3579765240019981
100
AcDbArc
 50
0.0
 51
90.0
  0
ARC
  5
306
102
{ACAD_REACTORS
330
31B
102
}
330
1F
100
AcDbEntity
  8
1
  6
Continuous
 62
     3
100
AcDbCircle
 10
70.7131009346282
 20
61.9692312698622
 30
0.0
 40
0.3579765240019981
100
AcDbArc
 50
90.0
 51
180.0
  0
ARC
  5
307
102
{ACAD_REACTORS
330
31F
102
}
330
1F
100
AcDbEntity
  8
1
  6
Continuous
 62
     3
100
AcDbCircle
 10
64.9917628577949
 20
59.4820573531454
 30
0.0
 40
0.3962246840410115
100
AcDbArc
 50
155.6826772112924
 51
180.0
  0
ARC
  5
308
102
{ACAD_REACTORS
330
31F
102
}
330
1F
100
AcDbEntity
  8
1
  6
Continuous
 62
     3
100
AcDbCircle
 10
65.0483663840865
 20
60.8456222939797
 30
0.0
 40
0.3962246840409548
100
AcDbArc
 50
334.5366549381367
 51
0.0
  0
ARC
  5
309
102
{ACAD_REACTORS
330
31F
102
}
330
1F
100
AcDbEntity
  8
1
  6
Continuous
 62
     3
100
AcDbCircle
 10
65.0483663840865
 20
60.8444349647246
 30
0.0
 40
0.1132070525831064
100
AcDbArc
 50
335.6826772113245
 51
0.0
  0
ARC
  5
30A
102
{ACAD_REACTORS
330
31F
102
}
330
1F
100
AcDbEntity
  8
1
  6
Continuous
 62
     3
100
AcDbCircle
 10
65.0483663840865
 20
61.2655307600518
 30
0.0
 40
0.3962246840409875
100
AcDbArc
 50
0.0
 51
90.0
  0
ARC
  5
30B
102
{ACAD_REACTORS
330
31F
102
}
330
1F
100
AcDbEntity
  8
1
  6
Continuous
 62
     3
100
AcDbCircle
 10
64.9917628577949
 20
61.2655307600518
 30
0.0
 40
0.3962246840409946
100
AcDbArc
 50
90.0
 51
180.0
  0
ARC
  5
30C
102
{ACAD_REACTORS
330
31F
102
}
330
1F
100
AcDbEntity
  8
1
  6
Continuous
 62
     3
100
AcDbCircle
 10
65.0483663840865
 20
61.2655307600518
 30
0.0
 40
0.1132070525830926
100
AcDbArc
 50
0.0
 51
90.0
  0
ARC
  5
30D
102
{ACAD_REACTORS
330
31F
102
}
330
1F
100
AcDbEntity
  8
1
  6
Continuous
 62
     3
100
AcDbCircle
 10
64.9917628577949
 20
61.2655307600518
 30
0.0
 40
0.1132070525831992
100
AcDbArc
 50
90.0
 51
180.0
  0
CIRCLE
  5
310
330
1F
100
AcDbEntity
  8
1
  6
Continuous
 62
     3
100
AcDbCircle
 10
-54.0
 20
-0.00000000000001
 30
0.0
 40
13.0
  0
CIRCLE
  5
311
330
1F
100
AcDbEntity
  8
1
  6
Continuous
 62
     3
100
AcDbCircle
 10
-54.0
 20
-0.00000000000001
 30
0.0
 40
10.7
  0
CIRCLE
  5
312
330
1F
100
AcDbEntity
  8
1
  6
Continuous
 62
     3
100
AcDbCircle
 10
-54.0
 20
-0.00000000000001
 30
0.0
 40
10.4703222103858
  0
CIRCLE
  5
313
330
1F
100
AcDbEntity
  8
1
  6
Continuous
 62
     3
100
AcDbCircle
 10
-54.0
 20
-0.00000000000001
 30
0.0
 40
10.052478760824
  0
CIRCLE
  5
314
330
1F
100
AcDbEntity
  8
1
  6
Continuous
 62
     3
100
AcDbCircle
 10
-54.0
 20
-0.00000000000001
 30
0.0
 40
9.270836405749002
  0
CIRCLE
  5
315
330
1F
100
AcDbEntity
  8
1
  6
Continuous
 62
     3
100
AcDbCircle
 10
-54.0
 20
-0.00000000000001
 30
0.0
 40
8.8248504812453
  0
CIRCLE
  5
316
330
1F
100
AcDbEntity
  8
1
  6
Continuous
 62
     3
100
AcDbCircle
 10
-54.0
 20
-0.00000000000001
 30
0.0
 40
8.3248504812453
  0
CIRCLE
  5
317
330
1F
100
AcDbEntity
  8
1
  6
Continuous
 62
     3
100
AcDbCircle
 10
-54.0
 20
-0.00000000000001
 30
0.0
 40
6.013056330182302
  0
CIRCLE
  5
318
330
1F
100
AcDbEntity
  8
1
  6
Continuous
 62
     3
100
AcDbCircle
 10
-54.0
 20
-0.00000000000001
 30
0.0
 40
4.5
  0
CIRCLE
  5
319
102
{ACAD_REACTORS
330
328
102
}
330
1F
100
AcDbEntity
  8
1
  6
Continuous
 62
     3
100
AcDbCircle
 10
59.493932941064
 20
60.0942228373882
 30
0.0
 40
0.4993979221079954
  0
LWPOLYLINE
  5
31A
330
1F
100
AcDbEntity
  8
1
  6
Continuous
 62
     3
100
AcDbPolyline
 90
        3
 70
     0
 43
0.0
 10
-5.2790641818101
 20
54.9521308735626
 42
1.0
 10
5.2790641818101
 20
61.0478691264374
 42
1.0
 10
-5.2790641818101
 20
54.9521308735626
  0
HATCH
  5
31B
330
1F
100
AcDbEntity
  8
1
  6
Continuous
 62
     4
100
AcDbHatch
 10
0.0
 20
0.0
 30
0.0
210
0.0
220
0.0
230
1.0
  2
_USER
 70
     0
 71
     1
 91
        2
 92
        1
 93
        8
 72
     2
 10
71.190402966631
 20
61.9692312698622
 40
0.3579765240019981
 50
0.0
 51
90.0
 73
     1
 72
     1
 10
71.190402966631
 20
62.3272077938642
 11
70.7131009346282
 21
62.3272077938642
 72
     2
 10
70.7131009346282
 20
61.9692312698622
 40
0.3579765240019981
 50
90.0
 51
180.0
 73
     1
 72
     1
 10
70.3551244106262
 20
61.9692312698622
 11
70.3551244106262
 21
59.6423838638488
 72
     2
 10
70.7131009346282
 20
59.6423838638488
 40
0.3579765240019981
 50
180.0
 51
270.0
 73
     1
 72
     1
 10
70.7131009346282
 20
59.2844073398468
 11
71.190402966631
 21
59.2844073398468
 72
     2
 10
71.190402966631
 20
59.6423838638488
 40
0.3579765240019981
 50
270.0
 51
360.0
 73
     1
 72
     1
 10
71.548379490633
 20
59.6423838638488
 11
71.548379490633
 21
61.9692312698622
 97
        8
330
305
330
22B
330
306
330
228
330
303
330
229
330
304
330
22A
 92
       16
 93
        8
 72
     2
 10
70.8920891966293
 20
61.7902430078613
 40
0.1789882620008996
 50
90.0
 51
180.0
 73
     1
 72
     1
 10
70.7131009346282
 20
61.7902430078613
 11
70.7131009346282
 21
59.8213721258497
 72
     2
 10
70.8920891966293
 20
59.8213721258497
 40
0.1789882620010985
 50
180.0
 51
270.0
 73
     1
 72
     1
 10
70.8920891966293
 20
59.6423838638488
 11
71.0114147046301
 21
59.6423838638488
 72
     2
 10
71.0114147046301
 20
59.8213721258497
 40
0.1789882620008996
 50
270.0
 51
360.0
 73
     1
 72
     1
 10
71.190402966631
 20
59.8213721258497
 11
71.190402966631
 21
61.7902430078613
 72
     2
 10
71.0114147046301
 20
61.7902430078613
 40
0.1789882620008996
 50
0.0
 51
90.0
 73
     1
 72
     1
 10
71.0114147046301
 20
61.9692312698622
 11
70.8920891966293
 21
61.9692312698622
 97
        8
330
2FF
330
224
330
302
330
225
330
301
330
226
330
300
330
227
 75
     1
 76
     0
 52
45.0
 41
0.01
 77
     0
 78
     1
 53
45.0
 43
0.0
 44
0.0
 45
-0.0070710678118655
 46
0.0070710678118655
 79
     0
 98
        1
 10
0.0
 20
0.0
  0
HATCH
  5
31C
330
1F
100
AcDbEntity
  8
1
  6
Continuous
 62
     4
100
AcDbHatch
 10
0.0
 20
0.0
 30
0.0
210
0.0
220
0.0
230
1.0
  2
_USER
 70
     0
 71
     1
 91
        2
 92
        1
 93
        8
 72
     1
 10
69.9971478866241
 20
61.9692312698622
 11
69.9971478866241
 21
59.6423838638488
 72
     2
 10
69.6391713626221
 20
59.6423838638488
 40
0.3579765240019981
 50
0.0
 51
90.0
 73
     0
 72
     1
 10
69.6391713626221
 20
59.2844073398468
 11
69.1618693306193
 21
59.2844073398468
 72
     2
 10
69.1618693306193
 20
59.6423838638488
 40
0.3579765240020976
 50
90.0
 51
180.0
 73
     0
 72
     1
 10
68.8038928066172
 20
59.6423838638488
 11
68.8038928066172
 21
61.9692312698622
 72
     2
 10
69.1618693306193
 20
61.9692312698622
 40
0.3579765240019981
 50
180.0
 51
270.0
 73
     0
 72
     1
 10
69.1618693306193
 20
62.3272077938642
 11
69.6391713626221
 21
62.3272077938642
 72
     2
 10
69.6391713626221
 20
61.9692312698622
 40
0.3579765240020123
 50
270.0
 51
360.0
 73
     0
 97
        8
330
223
330
2FE
330
220
330
2FB
330
221
330
2FC
330
222
330
2FD
 92
       16
 93
        8
 72
     2
 10
69.3408575926204
 20
61.7902430078613
 40
0.1789882620008996
 50
90.0
 51
180.0
 73
     1
 72
     1
 10
69.1618693306193
 20
61.7902430078613
 11
69.1618693306193
 21
59.8213721258497
 72
     2
 10
69.3408575926204
 20
59.8213721258497
 40
0.1789882620010985
 50
180.0
 51
270.0
 73
     1
 72
     1
 10
69.3408575926204
 20
59.6423838638488
 11
69.4601831006212
 21
59.6423838638488
 72
     2
 10
69.4601831006212
 20
59.8213721258497
 40
0.1789882620008996
 50
270.0
 51
360.0
 73
     1
 72
     1
 10
69.6391713626221
 20
59.8213721258497
 11
69.6391713626221
 21
61.7902430078613
 72
     2
 10
69.4601831006212
 20
61.7902430078613
 40
0.1789882620008996
 50
0.0
 51
90.0
 73
     1
 72
     1
 10
69.4601831006212
 20
61.9692312698622
 11
69.3408575926204
 21
61.9692312698622
 97
        8
330
2F7
330
21C
330
2FA
330
21D
330
2F9
330
21E
330
2F8
330
21F
 75
     1
 76
     0
 52
45.0
 41
0.01
 77
     0
 78
     1
 53
45.0
 43
0.0
 44
0.0
 45
-0.0070710678118655
 46
0.0070710678118655
 79
     0
 98
        1
 10
0.0
 20
0.0
  0
HATCH
  5
31D
330
1F
100
AcDbEntity
  8
1
  6
Continuous
 62
     4
100
AcDbHatch
 10
0.0
 20
0.0
 30
0.0
210
0.0
220
0.0
230
1.0
  2
_USER
 70
     0
 71
     1
 91
        2
 92
        1
 93
       18
 72
     2
 10
68.0875004717084
 20
61.9667602810233
 40
0.3576470588235026
 50
0.0
 51
90.0
 73
     1
 72
     1
 10
68.0875004717084
 20
62.3244073398468
 11
67.6106377266103
 21
62.3244073398468
 72
     2
 10
67.6106377266103
 20
61.9667602810233
 40
0.3576470588235026
 50
90.0
 51
180.0
 73
     1
 72
     1
 10
67.2529906677868
 20
61.9667602810233
 11
67.2529906677868
 21
59.6420543986702
 72
     2
 10
67.6106377266103
 20
59.6420543986702
 40
0.3576470588235026
 50
180.0
 51
270.0
 73
     1
 72
     1
 10
67.6106377266103
 20
59.2844073398468
 11
68.0875004717084
 21
59.2844073398468
 72
     2
 10
68.0875004717084
 20
59.6420543986702
 40
0.357647058823396
 50
270.0
 51
360.0
 73
     1
 72
     1
 10
68.4451475305319
 20
59.6420543986702
 11
68.4451475305319
 21
60.0444073398467
 72
     1
 10
68.4451475305319
 20
60.0444073398467
 11
68.4451475305319
 21
60.625583810435
 72
     2
 10
68.0875004717084
 20
60.625583810435
 40
0.3576470588235026
 50
0.0
 51
59.34933204294452
 73
     1
 72
     2
 10
67.8490690991594
 20
60.2232308692584
 40
0.8253407712989228
 50
59.34933204295172
 51
106.7914176871223
 73
     1
 72
     1
 10
67.6106377266103
 20
61.0133814051392
 11
67.6106377266103
 21
61.7879367516116
 72
     2
 10
67.7894612560222
 20
61.7879367516116
 40
0.1788235294116944
 50
180.0
 51
270.0
 73
     0
 72
     1
 10
67.7894612560222
 20
61.9667602810233
 11
67.9086769422967
 21
61.9667602810233
 72
     2
 10
67.9086769422967
 20
61.7879367516116
 40
0.1788235294117015
 50
270.0
 51
360.0
 73
     0
 72
     1
 10
68.0875004717084
 20
61.7879367516116
 11
68.0875004717084
 21
61.5930098505858
 72
     1
 10
68.0875004717084
 20
61.5930098505858
 11
68.4451475305319
 21
61.5930098505858
 72
     1
 10
68.4451475305319
 20
61.5930098505858
 11
68.4451475305319
 21
61.9667602810233
 97
       18
330
2A4
330
15D
330
2A3
330
160
330
2A6
330
15F
330
2A5
330
166
330
168
330
2AD
330
28E
330
16B
330
2AA
330
161
330
2A9
330
162
330
165
330
15E
 92
       16
 93
        9
 72
     2
 10
67.7894612560222
 20
59.820877928082
 40
0.1788235294118863
 50
180.0
 51
270.0
 73
     1
 72
     1
 10
67.7894612560222
 20
59.6420543986702
 11
67.9086769422967
 21
59.6420543986702
 72
     2
 10
67.9086769422967
 20
59.820877928082
 40
0.178823529411801
 50
270.0
 51
360.0
 73
     1
 72
     1
 10
68.0875004717084
 20
59.820877928082
 11
68.0875004717084
 21
60.0444073398467
 72
     1
 10
68.0875004717084
 20
60.0444073398467
 11
68.0875004717084
 21
60.4467602810233
 72
     2
 10
67.9086769422967
 20
60.4467602810233
 40
0.1788235294117015
 50
0.0
 51
90.0
 73
     1
 72
     1
 10
67.9086769422967
 20
60.625583810435
 11
67.7894612560221
 21
60.625583810435
 72
     2
 10
67.7894612560221
 20
60.4467602810233
 40
0.1788235294117015
 50
90.0
 51
180.0
 73
     1
 72
     1
 10
67.6106377266103
 20
60.4467602810233
 11
67.6106377266103
 21
59.820877928082
 97
        9
330
2A7
330
163
330
2A8
330
167
330
169
330
2AB
330
16A
330
2AC
330
164
 75
     1
 76
     0
 52
45.0
 41
0.01
 77
     0
 78
     1
 53
45.0
 43
0.0
 44
0.0
 45
-0.0070710678118655
 46
0.0070710678118655
 79
     0
 98
        1
 10
0.0
 20
0.0
  0
HATCH
  5
31E
330
1F
100
AcDbEntity
  8
1
  6
Continuous
 62
     4
100
AcDbHatch
 10
0.0
 20
0.0
 30
0.0
210
0.0
220
0.0
230
1.0
  2
_USER
 70
     0
 71
     1
 91
        1
 92
        1
 93
        4
 72
     1
 10
66.7753591706056
 20
60.6566506818546
 11
66.0594061226013
 21
60.6566506818546
 72
     1
 10
66.0594061226013
 20
60.6566506818546
 11
66.0594061226013
 21
60.9549644518564
 72
     1
 10
66.0594061226013
 20
60.9549644518564
 11
66.7753591706056
 21
60.9549644518564
 72
     1
 10
66.7753591706056
 20
60.9549644518564
 11
66.7753591706056
 21
60.6566506818546
 97
        4
330
21B
330
218
330
219
330
21A
 75
     1
 76
     0
 52
45.0
 41
0.01
 77
     0
 78
     1
 53
45.0
 43
0.0
 44
0.0
 45
-0.0070710678118655
 46
0.0070710678118655
 79
     0
 98
        1
 10
0.0
 20
0.0
  0
HATCH
  5
31F
330
1F
100
AcDbEntity
  8
1
  6
Continuous
 62
     4
100
AcDbHatch
 10
0.0
 20
0.0
 30
0.0
210
0.0
220
0.0
230
1.0
  2
_USER
 70
     0
 71
     1
 91
        1
 92
        1
 93
       20
 72
     2
 10
64.9917628577949
 20
61.2655307600518
 40
0.3962246840409946
 50
90.0
 51
180.0
 73
     1
 72
     1
 10
64.5955381737539
 20
61.2655307600518
 11
64.5955381737539
 21
60.9825131285939
 72
     1
 10
64.5955381737539
 20
60.9825131285939
 11
64.8785558052118
 21
60.9825131285939
 72
     1
 10
64.8785558052118
 20
60.9825131285939
 11
64.8785558052118
 21
61.2655307600518
 72
     2
 10
64.9917628577949
 20
61.2655307600518
 40
0.1132070525831992
 50
180.0
 51
270.0
 73
     0
 72
     1
 10
64.9917628577949
 20
61.378737812635
 11
65.0483663840865
 21
61.378737812635
 72
     2
 10
65.0483663840865
 20
61.2655307600518
 40
0.1132070525830926
 50
270.0
 51
360.0
 73
     0
 72
     1
 10
65.1615734366696
 20
61.2655307600518
 11
65.1615734366696
 21
60.8444349647246
 72
     2
 10
65.0483663840865
 20
60.8444349647246
 40
0.1132070525831064
 50
0.0
 51
24.31732278867554
 73
     0
 72
     1
 10
65.1515295731373
 20
60.7978174446337
 11
64.6306916961171
 21
59.6452186734638
 72
     2
 10
64.9917628577949
 20
59.4820573531454
 40
0.3962246840410115
 50
155.6826772112924
 51
180.0
 73
     1
 72
     1
 10
64.5955381737539
 20
59.4820573531454
 11
64.5955381737539
 21
59.2844073398467
 72
     1
 10
64.5955381737539
 20
59.2844073398467
 11
65.4445910681275
 21
59.2844073398467
 72
     1
 10
65.4445910681275
 20
59.2844073398467
 11
65.4445910681275
 21
59.5674249713046
 72
     1
 10
65.4445910681275
 20
59.5674249713046
 11
64.8785558052118
 21
59.5674249713046
 72
     1
 10
64.8785558052118
 20
59.5674249713046
 11
65.4061020078906
 21
60.6752719969302
 72
     2
 10
65.0483663840865
 20
60.8456222939797
 40
0.3962246840409548
 50
334.5366549381367
 51
360.0
 73
     1
 72
     1
 10
65.4445910681275
 20
60.8456222939797
 11
65.4445910681275
 21
61.2655307600518
 72
     2
 10
65.0483663840865
 20
61.2655307600518
 40
0.3962246840409875
 50
0.0
 51
90.0
 73
     1
 72
     1
 10
65.0483663840865
 20
61.6617554440928
 11
64.9917628577949
 21
61.6617554440928
 97
       20
330
30B
330
237
330
238
330
234
330
30D
330
233
330
30C
330
22D
330
309
330
22E
330
307
330
22C
330
230
330
231
330
232
330
22F
330
308
330
235
330
30A
330
236
 75
     1
 76
     0
 52
45.0
 41
0.01
 77
     0
 78
     1
 53
45.0
 43
0.0
 44
0.0
 45
-0.0070710678118655
 46
0.0070710678118655
 79
     0
 98
        1
 10
0.0
 20
0.0
  0
HATCH
  5
320
330
1F
100
AcDbEntity
  8
1
  6
Continuous
 62
     4
100
AcDbHatch
 10
0.0
 20
0.0
 30
0.0
210
0.0
220
0.0
230
1.0
  2
_USER
 70
     0
 71
     1
 91
        1
 92
        1
 93
        4
 72
     1
 10
64.312520542296
 20
62.2277907070086
 11
62.5578112272572
 21
59.3410108661383
 72
     1
 10
62.5578112272572
 20
59.3410108661383
 11
62.8408288587151
 21
59.3410108661383
 72
     1
 10
62.8408288587151
 20
59.3410108661383
 11
64.5955381737539
 21
62.2277907070086
 72
     1
 10
64.5955381737539
 20
62.2277907070086
 11
64.312520542296
 21
62.2277907070086
 97
        4
330
23A
330
239
330
23C
330
23B
 75
     1
 76
     0
 52
45.0
 41
0.01
 77
     0
 78
     1
 53
45.0
 43
0.0
 44
0.0
 45
-0.0070710678118655
 46
0.0070710678118655
 79
     0
 98
        1
 10
0.0
 20
0.0
  0
HATCH
  5
321
330
1F
100
AcDbEntity
  8
1
  6
Continuous
 62
     4
100
AcDbHatch
 10
0.0
 20
0.0
 30
0.0
210
0.0
220
0.0
230
1.0
  2
_USER
 70
     0
 71
     1
 91
        1
 92
        1
 93
        7
 72
     1
 10
62.6144147535488
 20
59.9636496553456
 11
62.3313971220909
 21
59.9636496553456
 72
     1
 10
62.3313971220909
 20
59.9636496553456
 11
62.3313971220909
 21
61.7183589703844
 72
     1
 10
62.3313971220909
 20
61.7183589703844
 11
62.048379490633
 21
61.7183589703844
 72
     1
 10
62.048379490633
 20
61.7183589703844
 11
62.048379490633
 21
61.9447730755507
 72
     2
 10
61.7595311837332
 20
62.6827044114992
 40
0.7924493680820394
 50
291.3768548660486
 51
329.8257344239553
 73
     1
 72
     1
 10
62.444604174674
 20
62.2843942333002
 11
62.6144147535488
 21
62.2843942333002
 72
     1
 10
62.6144147535488
 20
62.2843942333002
 11
62.6144147535488
 21
59.9636496553456
 97
        7
330
241
330
297
330
23F
330
240
330
23E
330
242
330
23D
 75
     1
 76
     0
 52
45.0
 41
0.01
 77
     0
 78
     1
 53
45.0
 43
0.0
 44
0.0
 45
-0.0070710678118655
 46
0.0070710678118655
 79
     0
 98
        1
 10
0.0
 20
0.0
  0
HATCH
  5
322
330
1F
100
AcDbEntity
  8
1
  6
Continuous
 62
     4
100
AcDbHatch
 10
0.0
 20
0.0
 30
0.0
210
0.0
220
0.0
230
1.0
  2
_USER
 70
     0
 71
     1
 91
        1
 92
        1
 93
       28
 72
     1
 10
63.2541584673236
 20
57.8095607350407
 11
63.2541584673236
 21
57.2134823036681
 72
     1
 10
63.2541584673236
 20
57.2134823036681
 11
62.8965114085
 21
57.2134823036681
 72
     1
 10
62.8965114085
 20
57.2134823036681
 11
62.8965114085
 21
57.630737205629
 72
     2
 10
62.7176878790884
 20
57.630737205629
 40
0.178823529411595
 50
0.0
 51
90.0
 73
     1
 72
     1
 10
62.7176878790884
 20
57.8095607350407
 11
62.5984721928138
 21
57.8095607350407
 72
     2
 10
62.5984721928138
 20
57.630737205629
 40
0.1788235294116944
 50
90.0
 51
180.0
 73
     1
 72
     1
 10
62.4196486634019
 20
57.630737205629
 11
62.4196486634019
 21
57.2302429927207
 72
     2
 10
62.5773691655498
 20
57.2302429927207
 40
0.157720502147896
 50
180.0
 51
235.26128378761
 73
     1
 72
     1
 10
62.4874945131424
 20
57.1006347227207
 11
63.0336594556671
 21
56.7219059242692
 72
     2
 10
62.7415668353432
 20
56.300679046769
 40
0.5125916319803991
 50
304.7387162123641
 51
360.0
 73
     0
 72
     1
 10
63.2541584673236
 20
56.300679046769
 11
63.2541584673236
 21
55.4848548526876
 72
     2
 10
62.8965114085
 20
55.4848548526876
 40
0.357647058823396
 50
0.0
 51
90.0
 73
     0
 72
     1
 10
62.8965114085
 20
55.1272077938642
 11
62.4196486634019
 21
55.1272077938642
 72
     2
 10
62.4196486634019
 20
55.4848548526876
 40
0.357647058823602
 50
90.0
 51
180.0
 73
     0
 72
     1
 10
62.0620016045783
 20
55.4848548526876
 11
62.0620016045783
 21
56.3193646566093
 72
     1
 10
62.0620016045783
 20
56.3193646566093
 11
62.4196486634019
 21
56.3193646566093
 72
     1
 10
62.4196486634019
 20
56.3193646566093
 11
62.4196486634019
 21
55.6636783820994
 72
     2
 10
62.5984721928138
 20
55.6636783820994
 40
0.1788235294119005
 50
180.0
 51
270.0
 73
     1
 72
     1
 10
62.5984721928138
 20
55.4848548526876
 11
62.7176878790884
 21
55.4848548526876
 72
     2
 10
62.7176878790884
 20
55.6636783820994
 40
0.178823529411801
 50
270.0
 51
360.0
 73
     1
 72
     1
 10
62.8965114085
 20
55.6636783820994
 11
62.8965114085
 21
56.3026039675566
 72
     2
 10
62.7387909063522
 20
56.3026039675566
 40
0.1577205021477965
 50
0.0
 51
55.26128378762851
 73
     1
 72
     1
 10
62.8286655587596
 20
56.4322122375567
 11
62.2825006162348
 21
56.8109410360082
 72
     2
 10
62.5745932365587
 20
57.2321679135083
 40
0.5125916319803991
 50
124.738716212371
 51
180.0
 73
     0
 72
     1
 10
62.0620016045783
 20
57.2321679135083
 11
62.0620016045783
 21
57.8095607350407
 72
     2
 10
62.4196486634019
 20
57.8095607350407
 40
0.3576470588235026
 50
180.0
 51
270.0
 73
     0
 72
     1
 10
62.4196486634019
 20
58.1672077938642
 11
62.8965114085
 21
58.1672077938642
 72
     2
 10
62.8965114085
 20
57.8095607350407
 40
0.357647058823602
 50
270.0
 51
360.0
 73
     0
 97
       28
330
1A2
330
2D0
330
1A3
330
2DA
330
1B1
330
2D8
330
1AE
330
2D4
330
1A8
330
2D3
330
1A9
330
1AA
330
1A5
330
2D2
330
1A4
330
2D1
330
1AF
330
2D9
330
1B0
330
2D7
330
1A7
330
2D5
330
1A6
330
2D6
330
1AD
330
1AB
330
1AC
330
2CF
 75
     1
 76
     0
 52
45.0
 41
0.01
 77
     0
 78
     1
 53
45.0
 43
0.0
 44
0.0
 45
-0.0070710678118655
 46
0.0070710678118655
 79
     0
 98
        1
 10
0.0
 20
0.0
  0
HATCH
  5
323
330
1F
100
AcDbEntity
  8
1
  6
Continuous
 62
     4
100
AcDbHatch
 10
0.0
 20
0.0
 30
0.0
210
0.0
220
0.0
230
1.0
  2
_USER
 70
     0
 71
     1
 91
        1
 92
        1
 93
       12
 72
     2
 10
64.1455001853915
 20
55.6636783820994
 40
0.178823529411801
 50
180.0
 51
270.0
 73
     1
 72
     1
 10
64.1455001853915
 20
55.4848548526876
 11
64.2647158716661
 21
55.4848548526876
 72
     2
 10
64.2647158716661
 20
55.6636783820994
 40
0.178823529411801
 50
270.0
 51
360.0
 73
     1
 72
     1
 10
64.4435394010777
 20
55.6636783820994
 11
64.4435394010777
 21
58.1504471048116
 72
     1
 10
64.4435394010777
 20
58.1504471048116
 11
64.8011864599014
 21
58.1504471048116
 72
     1
 10
64.8011864599014
 20
58.1504471048116
 11
64.8011864599014
 21
55.4848548526876
 72
     2
 10
64.4435394010777
 20
55.4848548526876
 40
0.357647058823396
 50
0.0
 51
90.0
 73
     0
 72
     1
 10
64.4435394010777
 20
55.1272077938642
 11
63.9666766559797
 21
55.1272077938642
 72
     2
 10
63.9666766559797
 20
55.4848548526876
 40
0.3576470588235949
 50
90.0
 51
180.0
 73
     0
 72
     1
 10
63.6090295971561
 20
55.4848548526876
 11
63.6090295971561
 21
58.1672077938642
 72
     1
 10
63.6090295971561
 20
58.1672077938642
 11
63.9666766559796
 21
58.1672077938642
 72
     1
 10
63.9666766559796
 20
58.1672077938642
 11
63.9666766559797
 21
55.6636783820994
 97
       12
330
1B5
330
1B2
330
2DB
330
1B7
330
2DE
330
1B9
330
1B8
330
1B6
330
2DD
330
1B3
330
2DC
330
1B4
 75
     1
 76
     0
 52
45.0
 41
0.01
 77
     0
 78
     1
 53
45.0
 43
0.0
 44
0.0
 45
-0.0070710678118655
 46
0.0070710678118655
 79
     0
 98
        1
 10
0.0
 20
0.0
  0
HATCH
  5
324
330
1F
100
AcDbEntity
  8
1
  6
Continuous
 62
     4
100
AcDbHatch
 10
0.0
 20
0.0
 30
0.0
210
0.0
220
0.0
230
1.0
  2
_USER
 70
     0
 71
     1
 91
        1
 92
        1
 93
       28
 72
     2
 10
65.5137046485575
 20
57.8095607350407
 40
0.3576470588235026
 50
90.0
 51
180.0
 73
     1
 72
     1
 10
65.1560575897339
 20
57.8095607350407
 11
65.1560575897339
 21
57.2321679135083
 72
     2
 10
65.6686492217142
 20
57.2321679135083
 40
0.5125916319802997
 50
180.0
 51
235.261283787629
 73
     1
 72
     1
 10
65.3765566013903
 20
56.8109410360082
 11
65.922721543915
 21
56.4322122375567
 72
     2
 10
65.8328468915076
 20
56.3026039675566
 40
0.157720502147896
 50
304.7387162123715
 51
360.0
 73
     0
 72
     1
 10
65.9905673936555
 20
56.3026039675566
 11
65.9905673936555
 21
55.6636783820994
 72
     2
 10
65.8117438642439
 20
55.6636783820994
 40
0.178823529411801
 50
0.0
 51
90.0
 73
     0
 72
     1
 10
65.8117438642439
 20
55.4848548526876
 11
65.6925281779693
 21
55.4848548526876
 72
     2
 10
65.6925281779693
 20
55.6636783820994
 40
0.1788235294117868
 50
90.0
 51
180.0
 73
     0
 72
     1
 10
65.5137046485575
 20
55.6636783820994
 11
65.5137046485575
 21
56.3193646566093
 72
     1
 10
65.5137046485575
 20
56.3193646566093
 11
65.1560575897339
 21
56.3193646566093
 72
     1
 10
65.1560575897339
 20
56.3193646566093
 11
65.1560575897339
 21
55.4848548526876
 72
     2
 10
65.5137046485575
 20
55.4848548526876
 40
0.357647058823602
 50
180.0
 51
270.0
 73
     1
 72
     1
 10
65.5137046485575
 20
55.1272077938642
 11
65.9905673936555
 21
55.1272077938642
 72
     2
 10
65.9905673936555
 20
55.4848548526876
 40
0.357647058823396
 50
270.0
 51
360.0
 73
     1
 72
     1
 10
66.3482144524791
 20
55.4848548526876
 11
66.3482144524791
 21
56.300679046769
 72
     2
 10
65.8356228204987
 20
56.300679046769
 40
0.5125916319803991
 50
0.0
 51
55.26128378763585
 73
     1
 72
     1
 10
66.1277154408226
 20
56.7219059242692
 11
65.5815504982979
 21
57.1006347227207
 72
     2
 10
65.6714251507053
 20
57.2302429927207
 40
0.1577205021477965
 50
124.7387162123921
 51
180.0
 73
     0
 72
     1
 10
65.5137046485575
 20
57.2302429927207
 11
65.5137046485575
 21
57.630737205629
 72
     2
 10
65.6925281779693
 20
57.630737205629
 40
0.1788235294116944
 50
180.0
 51
270.0
 73
     0
 72
     1
 10
65.6925281779693
 20
57.8095607350407
 11
65.8117438642439
 21
57.8095607350407
 72
     2
 10
65.8117438642439
 20
57.630737205629
 40
0.1788235294116021
 50
270.0
 51
360.0
 73
     0
 72
     1
 10
65.9905673936555
 20
57.630737205629
 11
65.9905673936555
 21
57.2134823036681
 72
     1
 10
65.9905673936555
 20
57.2134823036681
 11
66.3482144524791
 21
57.2134823036681
 72
     1
 10
66.3482144524791
 20
57.2134823036681
 11
66.3482144524791
 21
57.8095607350407
 72
     2
 10
65.9905673936555
 20
57.8095607350407
 40
0.357647058823602
 50
0.0
 51
90.0
 73
     1
 72
     1
 10
65.9905673936555
 20
58.1672077938642
 11
65.5137046485575
 21
58.1672077938642
 97
       28
330
2C4
330
193
330
2CE
330
1A1
330
2CC
330
19E
330
2C8
330
198
330
2C7
330
199
330
19A
330
195
330
2C6
330
194
330
2C5
330
19F
330
2CD
330
1A0
330
2CB
330
197
330
2C9
330
196
330
2CA
330
19D
330
19B
330
19C
330
2C3
330
192
 75
     1
 76
     0
 52
45.0
 41
0.01
 77
     0
 78
     1
 53
45.0
 43
0.0
 44
0.0
 45
-0.0070710678118655
 46
0.0070710678118655
 79
     0
 98
        1
 10
0.0
 20
0.0
  0
HATCH
  5
325
330
1F
100
AcDbEntity
  8
1
  6
Continuous
 62
     4
100
AcDbHatch
 10
0.0
 20
0.0
 30
0.0
210
0.0
220
0.0
230
1.0
  2
_USER
 70
     0
 71
     1
 91
        1
 92
        1
 93
       29
 72
     2
 10
67.6142618435741
 20
57.8095607350407
 40
0.3576470588235026
 50
90.0
 51
180.0
 73
     1
 72
     1
 10
67.2566147847505
 20
57.8095607350407
 11
67.2566147847505
 21
57.2134823036681
 72
     1
 10
67.2566147847505
 20
57.2134823036681
 11
67.6142618435741
 21
57.2134823036681
 72
     1
 10
67.6142618435741
 20
57.2134823036681
 11
67.6142618435741
 21
57.630737205629
 72
     2
 10
67.793085372986
 20
57.630737205629
 40
0.1788235294116944
 50
180.0
 51
270.0
 73
     0
 72
     1
 10
67.793085372986
 20
57.8095607350407
 11
67.9123010592605
 21
57.8095607350407
 72
     2
 10
67.9123010592605
 20
57.630737205629
 40
0.1788235294116021
 50
270.0
 51
360.0
 73
     0
 72
     1
 10
68.0911245886721
 20
57.630737205629
 11
68.0911245886721
 21
57.1538744605308
 72
     2
 10
67.9123010592605
 20
57.1538744605308
 40
0.1788235294117015
 50
0.0
 51
90.0
 73
     0
 72
     1
 10
67.9123010592605
 20
56.9750509311191
 11
67.6738696867113
 21
56.9750509311191
 72
     1
 10
67.6738696867113
 20
56.9750509311191
 11
67.6738696867113
 21
56.6174038722955
 72
     1
 10
67.6738696867113
 20
56.6174038722955
 11
67.9123010592605
 21
56.6174038722955
 72
     2
 10
67.9123010592605
 20
56.4385803428837
 40
0.1788235294116021
 50
270.0
 51
360.0
 73
     0
 72
     1
 10
68.0911245886721
 20
56.4385803428837
 11
68.0911245886721
 21
55.6636783820994
 72
     2
 10
67.9123010592605
 20
55.6636783820994
 40
0.178823529411801
 50
0.0
 51
90.0
 73
     0
 72
     1
 10
67.9123010592605
 20
55.4848548526876
 11
67.793085372986
 21
55.4848548526876
 72
     2
 10
67.793085372986
 20
55.6636783820994
 40
0.1788235294119005
 50
90.0
 51
180.0
 73
     0
 72
     1
 10
67.6142618435741
 20
55.6636783820994
 11
67.6142618435741
 21
56.3193646566093
 72
     1
 10
67.6142618435741
 20
56.3193646566093
 11
67.2566147847505
 21
56.3193646566093
 72
     1
 10
67.2566147847505
 20
56.3193646566093
 11
67.2566147847505
 21
55.4848548526876
 72
     2
 10
67.6142618435741
 20
55.4848548526876
 40
0.357647058823602
 50
180.0
 51
270.0
 73
     1
 72
     1
 10
67.6142618435741
 20
55.1272077938642
 11
68.0911245886721
 21
55.1272077938642
 72
     2
 10
68.0911245886721
 20
55.4848548526876
 40
0.357647058823396
 50
270.0
 51
360.0
 73
     1
 72
     1
 10
68.4487716474957
 20
55.4848548526876
 11
68.4487716474957
 21
56.4385803428837
 72
     2
 10
67.9123010592605
 20
56.4385803428837
 40
0.5364705882352041
 50
0.0
 51
41.81031489580228
 73
     1
 72
     2
 10
67.9123010592605
 20
57.1538744605308
 40
0.5364705882351054
 50
318.1896851042215
 51
360.0
 73
     1
 72
     1
 10
68.4487716474957
 20
57.1538744605308
 11
68.4487716474957
 21
57.8095607350407
 72
     2
 10
68.0911245886721
 20
57.8095607350407
 40
0.357647058823602
 50
0.0
 51
90.0
 73
     1
 72
     1
 10
68.0911245886721
 20
58.1672077938642
 11
67.6142618435741
 21
58.1672077938642
 97
       29
330
2AE
330
176
330
175
330
177
330
2B7
330
170
330
2B6
330
171
330
2B5
330
178
330
179
330
17A
330
2B4
330
17B
330
2B3
330
172
330
2B2
330
173
330
174
330
16F
330
2B1
330
16E
330
2B0
330
17C
330
290
330
28F
330
16D
330
2AF
330
16C
 75
     1
 76
     0
 52
45.0
 41
0.01
 77
     0
 78
     1
 53
45.0
 43
0.0
 44
0.0
 45
-0.0070710678118655
 46
0.0070710678118655
 79
     0
 98
        1
 10
0.0
 20
0.0
  0
HATCH
  5
326
330
1F
100
AcDbEntity
  8
1
  6
Continuous
 62
     4
100
AcDbHatch
 10
0.0
 20
0.0
 30
0.0
210
0.0
220
0.0
230
1.0
  2
_USER
 70
     0
 71
     1
 91
        1
 92
        1
 93
        7
 72
     1
 10
69.7596606487173
 20
58.1672077938642
 11
69.4020135898937
 21
58.1672077938642
 72
     2
 10
68.6601219096752
 20
58.4345851578423
 40
0.7886025107399236
 50
19.81913546676635
 51
60.84017065080096
 73
     0
 72
     1
 10
69.0443665310703
 20
57.745927049
 11
69.0443665310703
 21
57.3246463041357
 72
     1
 10
69.0443665310703
 20
57.3246463041357
 11
69.4020135898937
 21
57.3246463041357
 72
     1
 10
69.4020135898937
 20
57.3246463041357
 11
69.4020135898937
 21
55.1272077938642
 72
     1
 10
69.4020135898937
 20
55.1272077938642
 11
69.7596606487173
 21
55.1272077938642
 72
     1
 10
69.7596606487173
 20
55.1272077938642
 11
69.7596606487173
 21
58.1672077938642
 97
        7
330
18E
330
292
330
190
330
18F
330
18C
330
191
330
18D
 75
     1
 76
     0
 52
45.0
 41
0.01
 77
     0
 78
     1
 53
45.0
 43
0.0
 44
0.0
 45
-0.0070710678118655
 46
0.0070710678118655
 79
     0
 98
        1
 10
0.0
 20
0.0
  0
HATCH
  5
327
330
1F
100
AcDbEntity
  8
1
  6
Continuous
 62
     4
100
AcDbHatch
 10
0.0
 20
0.0
 30
0.0
210
0.0
220
0.0
230
1.0
  2
_USER
 70
     0
 71
     1
 91
        2
 92
        1
 93
       18
 72
     2
 10
70.7138696867115
 20
57.8095607350407
 40
0.3576470588235026
 50
90.0
 51
180.0
 73
     1
 72
     1
 10
70.356222627888
 20
57.8095607350407
 11
70.356222627888
 21
55.4848548526876
 72
     2
 10
70.7138696867115
 20
55.4848548526876
 40
0.3576470588235026
 50
180.0
 51
270.0
 73
     1
 72
     1
 10
70.7138696867115
 20
55.1272077938642
 11
71.1907324318096
 21
55.1272077938642
 72
     2
 10
71.1907324318096
 20
55.4848548526876
 40
0.357647058823396
 50
270.0
 51
360.0
 73
     1
 72
     1
 10
71.548379490633
 20
55.4848548526876
 11
71.548379490633
 21
55.8872077938642
 72
     1
 10
71.548379490633
 20
55.8872077938642
 11
71.548379490633
 21
56.4683842644524
 72
     2
 10
71.1907324318096
 20
56.4683842644524
 40
0.3576470588234031
 50
0.0
 51
59.34933204295824
 73
     1
 72
     2
 10
70.9523010592605
 20
56.0660313232759
 40
0.82534077129883
 50
59.34933204294906
 51
106.7914176871186
 73
     1
 72
     1
 10
70.7138696867115
 20
56.8561818591566
 11
70.7138696867115
 21
57.630737205629
 72
     2
 10
70.8926932161233
 20
57.630737205629
 40
0.1788235294116944
 50
180.0
 51
270.0
 73
     0
 72
     1
 10
70.8926932161233
 20
57.8095607350407
 11
71.0119089023979
 21
57.8095607350407
 72
     2
 10
71.0119089023979
 20
57.630737205629
 40
0.1788235294116873
 50
270.0
 51
360.0
 73
     0
 72
     1
 10
71.1907324318096
 20
57.630737205629
 11
71.1907324318096
 21
57.4358103046032
 72
     1
 10
71.1907324318096
 20
57.4358103046032
 11
71.548379490633
 21
57.4358103046032
 72
     1
 10
71.548379490633
 20
57.4358103046032
 11
71.548379490633
 21
57.8095607350407
 72
     2
 10
71.1907324318096
 20
57.8095607350407
 40
0.3576470588234031
 50
0.0
 51
90.0
 73
     1
 72
     1
 10
71.1907324318096
 20
58.1672077938642
 11
70.7138696867115
 21
58.1672077938642
 97
       18
330
2B8
330
180
330
2BB
330
17F
330
2BA
330
186
330
188
330
2C2
330
291
330
18B
330
2BF
330
181
330
2BE
330
182
330
185
330
17E
330
2B9
330
17D
 92
       16
 93
        9
 72
     2
 10
70.8926932161233
 20
55.6636783820994
 40
0.178823529411801
 50
180.0
 51
270.0
 73
     1
 72
     1
 10
70.8926932161233
 20
55.4848548526876
 11
71.0119089023979
 21
55.4848548526876
 72
     2
 10
71.0119089023979
 20
55.6636783820994
 40
0.178823529411801
 50
270.0
 51
360.0
 73
     1
 72
     1
 10
71.1907324318096
 20
55.6636783820994
 11
71.1907324318096
 21
55.8872077938642
 72
     1
 10
71.1907324318096
 20
55.8872077938642
 11
71.1907324318096
 21
56.2895607350407
 72
     2
 10
71.0119089023979
 20
56.2895607350407
 40
0.1788235294116873
 50
0.0
 51
90.0
 73
     1
 72
     1
 10
71.0119089023979
 20
56.4683842644524
 11
70.8926932161232
 21
56.4683842644524
 72
     2
 10
70.8926932161232
 20
56.2895607350407
 40
0.1788235294117015
 50
90.0
 51
180.0
 73
     1
 72
     1
 10
70.7138696867115
 20
56.2895607350407
 11
70.7138696867115
 21
55.6636783820994
 97
        9
330
2BC
330
183
330
2BD
330
187
330
189
330
2C0
330
18A
330
2C1
330
184
 75
     1
 76
     0
 52
45.0
 41
0.01
 77
     0
 78
     1
 53
45.0
 43
0.0
 44
0.0
 45
-0.0070710678118655
 46
0.0070710678118655
 79
     0
 98
        1
 10
0.0
 20
0.0
  0
HATCH
  5
328
330
1F
100
AcDbEntity
  8
1
  6
Continuous
 62
     4
100
AcDbHatch
 10
0.0
 20
0.0
 30
0.0
210
0.0
220
0.0
230
1.0
  2
_USER
 70
     0
 71
     1
 91
        1
 92
        1
 93
        1
 72
     2
 10
59.493932941064
 20
60.0942228373882
 40
0.4993979221079954
 50
0.0
 51
360.0
 73
     1
 97
        1
330
319
 75
     1
 76
     0
 52
45.0
 41
0.01
 77
     0
 78
     1
 53
45.0
 43
0.0
 44
0.0
 45
-0.0070710678118655
 46
0.0070710678118655
 79
     0
 98
        1
 10
0.0
 20
0.0
  0
HATCH
  5
329
330
1F
100
AcDbEntity
  8
1
  6
Continuous
 62
     4
100
AcDbHatch
 10
0.0
 20
0.0
 30
0.0
210
0.0
220
0.0
230
1.0
  2
_USER
 70
     0
 71
     1
 91
        1
 92
        1
 93
        4
 72
     1
 10
59.8066467081295
 20
57.835192443047
 11
59.1806062761293
 21
57.835192443047
 72
     1
 10
59.1806062761293
 20
57.835192443047
 11
59.1806062761293
 21
59.1594091558469
 72
     1
 10
59.1806062761293
 20
59.1594091558469
 11
59.8066467081295
 21
59.1594091558469
 72
     1
 10
59.8066467081295
 20
59.1594091558469
 11
59.8066467081295
 21
57.835192443047
 97
        4
330
1F6
330
1F7
330
1BA
330
1F8
 75
     1
 76
     0
 52
45.0
 41
0.01
 77
     0
 78
     1
 53
45.0
 43
0.0
 44
0.0
 45
-0.0070710678118655
 46
0.0070710678118655
 79
     0
 98
        1
 10
0.0
 20
0.0
  0
HATCH
  5
32A
330
1F
100
AcDbEntity
  8
1
  6
Continuous
 62
     4
100
AcDbHatch
 10
0.0
 20
0.0
 30
0.0
210
0.0
220
0.0
230
1.0
  2
_USER
 70
     0
 71
     1
 91
        2
 92
        1
 93
        8
 72
     1
 10
58.7785472446773
 20
57.835192443047
 11
57.7572987262772
 21
59.5372733070468
 72
     1
 10
57.7572987262772
 20
59.5372733070468
 11
56.7826978230359
 21
59.5372733070468
 72
     1
 10
56.7826978230359
 20
59.5372733070468
 11
55.676345261436
 21
57.835192443047
 72
     1
 10
55.676345261436
 20
57.835192443047
 11
56.1563654854134
 21
57.835192443047
 72
     1
 10
56.1563654854134
 20
57.835192443047
 11
56.3863354551008
 21
58.1756086158469
 72
     1
 10
56.3863354551008
 20
58.1756086158469
 11
57.8459163138124
 21
58.1756086158469
 72
     1
 10
57.8459163138124
 20
58.1756086158469
 11
58.050453082811
 21
57.835192443047
 72
     1
 10
58.050453082811
 20
57.835192443047
 11
58.7785472446773
 21
57.835192443047
 97
        8
330
1F5
330
1EE
330
1EF
330
1ED
330
1EB
330
1F4
330
1F1
330
1F0
 92
       16
 93
        3
 72
     1
 10
56.5875591785774
 20
58.4734727670467
 11
57.1588430733932
 21
59.319123515793
 72
     1
 10
57.1588430733932
 20
59.319123515793
 11
57.6669466409387
 21
58.4734727670467
 72
     1
 10
57.6669466409387
 20
58.4734727670467
 11
56.5875591785774
 21
58.4734727670467
 97
        3
330
1EC
330
1F3
330
1F2
 75
     1
 76
     0
 52
45.0
 41
0.01
 77
     0
 78
     1
 53
45.0
 43
0.0
 44
0.0
 45
-0.0070710678118655
 46
0.0070710678118655
 79
     0
 98
        1
 10
0.0
 20
0.0
  0
HATCH
  5
32B
330
1F
100
AcDbEntity
  8
1
  6
Continuous
 62
     4
100
AcDbHatch
 10
0.0
 20
0.0
 30
0.0
210
0.0
220
0.0
230
1.0
  2
_USER
 70
     0
 71
     1
 91
        1
 92
        1
 93
       13
 72
     1
 10
55.298481110236
 20
57.835192443047
 11
54.577440678236
 21
57.835192443047
 72
     1
 10
54.577440678236
 20
57.835192443047
 11
54.577440678236
 21
59.069201069447
 72
     1
 10
54.577440678236
 20
59.069201069447
 11
53.9504864170525
 21
57.835192443047
 72
     1
 10
53.9504864170525
 20
57.835192443047
 11
53.3191283590439
 21
57.835192443047
 72
     1
 10
53.3191283590439
 20
57.835192443047
 11
52.6477037494359
 21
59.069201069447
 72
     1
 10
52.6477037494359
 20
59.069201069447
 11
52.6477037494359
 21
57.835192443047
 72
     1
 10
52.6477037494359
 20
57.835192443047
 11
52.1819754470361
 21
57.835192443047
 72
     1
 10
52.1819754470361
 20
57.835192443047
 11
52.1819754470361
 21
59.5372733070468
 72
     1
 10
52.1819754470361
 20
59.5372733070468
 11
53.2286301514953
 21
59.5372733070468
 72
     1
 10
53.2286301514953
 20
59.5372733070468
 11
53.7417928879343
 21
58.4734727670467
 72
     1
 10
53.7417928879343
 20
58.4734727670467
 11
54.2172923042693
 21
59.5372733070468
 72
     1
 10
54.2172923042693
 20
59.5372733070468
 11
55.298481110236
 21
59.5372733070468
 72
     1
 10
55.298481110236
 20
59.5372733070468
 11
55.298481110236
 21
57.835192443047
 97
       13
330
1BB
330
1BC
330
1BD
330
1E2
330
1E1
330
1E3
330
1D3
330
1BE
330
1BF
330
1C0
330
1D5
330
1D4
330
1E9
 75
     1
 76
     0
 52
45.0
 41
0.01
 77
     0
 78
     1
 53
45.0
 43
0.0
 44
0.0
 45
-0.0070710678118655
 46
0.0070710678118655
 79
     0
 98
        1
 10
0.0
 20
0.0
  0
HATCH
  5
32C
330
1F
100
AcDbEntity
  8
1
  6
Continuous
 62
     4
100
AcDbHatch
 10
0.0
 20
0.0
 30
0.0
210
0.0
220
0.0
230
1.0
  2
_USER
 70
     0
 71
     1
 91
        2
 92
        1
 93
        8
 72
     1
 10
51.8000157022772
 20
57.835192443047
 11
50.7787671838771
 21
59.5372733070468
 72
     1
 10
50.7787671838771
 20
59.5372733070468
 11
49.8041662806359
 21
59.5372733070468
 72
     1
 10
49.8041662806359
 20
59.5372733070468
 11
48.6978137190361
 21
57.835192443047
 72
     1
 10
48.6978137190361
 20
57.835192443047
 11
49.1778339430133
 21
57.835192443047
 72
     1
 10
49.1778339430133
 20
57.835192443047
 11
49.4078039127008
 21
58.1756086158469
 72
     1
 10
49.4078039127008
 20
58.1756086158469
 11
50.8673847714125
 21
58.1756086158469
 72
     1
 10
50.8673847714125
 20
58.1756086158469
 11
51.0719215404109
 21
57.835192443047
 72
     1
 10
51.0719215404109
 20
57.835192443047
 11
51.8000157022772
 21
57.835192443047
 97
        8
330
1EA
330
1D9
330
1DA
330
1D8
330
1C1
330
1E8
330
1E5
330
1E4
 92
       16
 93
        3
 72
     1
 10
49.6090276361774
 20
58.4734727670467
 11
50.1803115309932
 21
59.319123515793
 72
     1
 10
50.1803115309932
 20
59.319123515793
 11
50.6884150985386
 21
58.4734727670467
 72
     1
 10
50.6884150985386
 20
58.4734727670467
 11
49.6090276361774
 21
58.4734727670467
 97
        3
330
1C2
330
1E7
330
1E6
 75
     1
 76
     0
 52
45.0
 41
0.01
 77
     0
 78
     1
 53
45.0
 43
0.0
 44
0.0
 45
-0.0070710678118655
 46
0.0070710678118655
 79
     0
 98
        1
 10
0.0
 20
0.0
  0
HATCH
  5
32D
330
1F
100
AcDbEntity
  8
1
  6
Continuous
 62
     4
100
AcDbHatch
 10
0.0
 20
0.0
 30
0.0
210
0.0
220
0.0
230
1.0
  2
_USER
 70
     0
 71
     1
 91
        1
 92
        1
 93
       12
 72
     1
 10
47.636409135836
 20
58.8389929830469
 11
46.4752646606361
 21
58.8389929830469
 72
     1
 10
46.4752646606361
 20
58.8389929830469
 11
46.4752646606361
 21
59.5372733070468
 72
     1
 10
46.4752646606361
 20
59.5372733070468
 11
45.736724228636
 21
59.5372733070468
 72
     1
 10
45.736724228636
 20
59.5372733070468
 11
45.736724228636
 21
57.835192443047
 72
     1
 10
45.736724228636
 20
57.835192443047
 11
46.4752646606361
 21
57.835192443047
 72
     1
 10
46.4752646606361
 20
57.835192443047
 11
46.4752646606361
 21
58.5334727670467
 72
     1
 10
46.4752646606361
 20
58.5334727670467
 11
47.636409135836
 21
58.5334727670467
 72
     1
 10
47.636409135836
 20
58.5334727670467
 11
47.636409135836
 21
57.835192443047
 72
     1
 10
47.636409135836
 20
57.835192443047
 11
48.3749495678359
 21
57.835192443047
 72
     1
 10
48.3749495678359
 20
57.835192443047
 11
48.3749495678359
 21
59.5372733070468
 72
     1
 10
48.3749495678359
 20
59.5372733070468
 11
47.636409135836
 21
59.5372733070468
 72
     1
 10
47.636409135836
 20
59.5372733070468
 11
47.636409135836
 21
58.8389929830469
 97
       12
330
1C5
330
1C4
330
1CB
330
1DC
330
1CA
330
1C3
330
1C7
330
1C8
330
1C9
330
1DB
330
1CC
330
1C6
 75
     1
 76
     0
 52
45.0
 41
0.01
 77
     0
 78
     1
 53
45.0
 43
0.0
 44
0.0
 45
-0.0070710678118655
 46
0.0070710678118655
 79
     0
 98
        1
 10
0.0
 20
0.0
  0
HATCH
  5
32E
330
1F
100
AcDbEntity
  8
1
  6
Continuous
 62
     4
100
AcDbHatch
 10
0.0
 20
0.0
 30
0.0
210
0.0
220
0.0
230
1.0
  2
_USER
 70
     0
 71
     1
 91
        1
 92
        1
 93
        4
 72
     1
 10
44.588379490633
 20
60.5272077938642
 11
43.4383794906329
 21
60.5272077938642
 72
     1
 10
43.4383794906329
 20
60.5272077938642
 11
43.4383794906329
 21
56.9272077938642
 72
     1
 10
43.4383794906329
 20
56.9272077938642
 11
44.588379490633
 21
56.9272077938642
 72
     1
 10
44.588379490633
 20
56.9272077938642
 11
44.588379490633
 21
60.5272077938642
 97
        4
330
1D7
330
1D2
330
1D6
330
1E0
 75
     1
 76
     0
 52
45.0
 41
0.01
 77
     0
 78
     1
 53
45.0
 43
0.0
 44
0.0
 45
-0.0070710678118655
 46
0.0070710678118655
 79
     0
 98
        1
 10
0.0
 20
0.0
  0
HATCH
  5
32F
330
1F
100
AcDbEntity
  8
1
  6
Continuous
 62
     4
100
AcDbHatch
 10
0.0
 20
0.0
 30
0.0
210
0.0
220
0.0
230
1.0
  2
_USER
 70
     0
 71
     1
 91
        1
 92
        1
 93
        4
 72
     1
 10
42.6433794906329
 20
56.9272077938642
 11
41.493379490633
 21
56.9272077938642
 72
     1
 10
41.493379490633
 20
56.9272077938642
 11
41.493379490633
 21
60.5272077938642
 72
     1
 10
41.493379490633
 20
60.5272077938642
 11
42.6433794906329
 21
60.5272077938642
 72
     1
 10
42.6433794906329
 20
60.5272077938642
 11
42.6433794906329
 21
56.9272077938642
 97
        4
330
1CD
330
1CF
330
1CE
330
1D0
 75
     1
 76
     0
 52
45.0
 41
0.01
 77
     0
 78
     1
 53
45.0
 43
0.0
 44
0.0
 45
-0.0070710678118655
 46
0.0070710678118655
 79
     0
 98
        1
 10
0.0
 20
0.0
  0
HATCH
  5
330
330
1F
100
AcDbEntity
  8
1
  6
Continuous
 62
     4
100
AcDbHatch
 10
0.0
 20
0.0
 30
0.0
210
0.0
220
0.0
230
1.0
  2
_USER
 70
     0
 71
     1
 91
        1
 92
        1
 93
        4
 72
     1
 10
40.698379490633
 20
56.9272077938642
 11
39.548379490633
 21
56.9272077938642
 72
     1
 10
39.548379490633
 20
56.9272077938642
 11
39.548379490633
 21
60.5272077938642
 72
     1
 10
39.548379490633
 20
60.5272077938642
 11
40.698379490633
 21
60.5272077938642
 72
     1
 10
40.698379490633
 20
60.5272077938642
 11
40.698379490633
 21
56.9272077938642
 97
        4
330
1DE
330
1DF
330
1DD
330
1D1
 75
     1
 76
     0
 52
45.0
 41
0.01
 77
     0
 78
     1
 53
45.0
 43
0.0
 44
0.0
 45
-0.0070710678118655
 46
0.0070710678118655
 79
     0
 98
        1
 10
0.0
 20
0.0
  0
HATCH
  5
331
330
1F
100
AcDbEntity
  8
1
  6
Continuous
 62
     4
100
AcDbHatch
 10
0.0
 20
0.0
 30
0.0
210
0.0
220
0.0
230
1.0
  2
_USER
 70
     0
 71
     1
 91
        1
 92
        1
 93
       12
 72
     2
 10
27.7531962233664
 20
58.6862328750466
 40
9.2916438356166
 50
0.0
 51
30.80958048222448
 73
     1
 72
     2
 10
35.6648400589829
 20
63.4043123543055
 40
0.0800000000001296
 50
30.80958048219559
 51
180.0
 73
     1
 72
     1
 10
35.5848400589829
 20
63.4043123543055
 11
35.7862736406837
 21
61.7044313468802
 72
     1
 10
35.7862736406837
 20
61.7044313468802
 11
36.2337869627468
 21
61.8109821378478
 72
     2
 10
36.2569490154774
 20
61.7137015163792
 40
0.0999999999999964
 50
256.6075022462566
 51
340.7693468284494
 73
     0
 72
     2
 10
27.5781962233664
 20
58.6862328750466
 40
9.291643835616501
 50
340.7693468285389
 51
360.0
 73
     0
 72
     2
 10
27.5781962233664
 20
58.6862328750466
 40
9.291643835616457
 50
0.0
 51
19.2306531714586
 73
     0
 72
     2
 10
36.2569490154774
 20
55.6587642337143
 40
0.1000000000000607
 50
19.23065317147799
 51
103.3924977537434
 73
     0
 72
     1
 10
36.2337869627468
 20
55.5614836122457
 11
35.7982841966019
 21
55.665174747042
 72
     1
 10
35.7982841966019
 20
55.665174747042
 11
35.5848400589829
 21
53.9681533957879
 72
     2
 10
35.6648400589829
 20
53.9681533957879
 40
0.0799999999999983
 50
180.0
 51
329.1904195176658
 73
     1
 72
     2
 10
27.7531962233664
 20
58.6862328750466
 40
9.291643835616465
 50
329.1904195177754
 51
360.0
 73
     1
 97
       12
330
293
330
2E7
330
214
330
1F9
330
2E8
330
294
330
296
330
2EA
330
202
330
215
330
2E9
330
295
 75
     1
 76
     0
 52
45.0
 41
0.01
 77
     0
 78
     1
 53
45.0
 43
0.0
 44
0.0
 45
-0.0070710678118655
 46
0.0070710678118655
 79
     0
 98
        1
 10
0.0
 20
0.0
  0
HATCH
  5
332
330
1F
100
AcDbEntity
  8
1
  6
Continuous
 62
     4
100
AcDbHatch
 10
0.0
 20
0.0
 30
0.0
210
0.0
220
0.0
230
1.0
  2
_USER
 70
     0
 71
     1
 91
        2
 92
        1
 93
        8
 72
     1
 10
35.1648400589829
 20
62.8062328750467
 11
35.1648400589829
 21
62.2462328750467
 72
     2
 10
34.8448400589829
 20
62.2462328750467
 40
0.3199999999998013
 50
0.0
 51
90.0
 73
     0
 72
     1
 10
34.8448400589829
 20
61.9262328750469
 11
32.3648400589828
 21
61.9262328750469
 72
     2
 10
32.3648400589828
 20
62.2462328750467
 40
0.3199999999999008
 50
90.0
 51
180.0
 73
     0
 72
     1
 10
32.0448400589829
 20
62.2462328750467
 11
32.0448400589829
 21
62.8062328750467
 72
     2
 10
32.3648400589828
 20
62.8062328750467
 40
0.3200000000000998
 50
180.0
 51
270.0
 73
     0
 72
     1
 10
32.3648400589828
 20
63.1262328750468
 11
34.8448400589829
 21
63.1262328750468
 72
     2
 10
34.8448400589829
 20
62.8062328750467
 40
0.3199999999999932
 50
270.0
 51
360.0
 73
     0
 97
        8
330
1FA
330
2DF
330
1FB
330
2E0
330
1FC
330
2E1
330
1FD
330
2E2
 92
       16
 93
        8
 72
     2
 10
34.6298400589829
 20
62.5912328750466
 40
0.2999999999999972
 50
0.0
 51
90.0
 73
     1
 72
     1
 10
34.6298400589829
 20
62.8912328750469
 11
32.579840058983
 21
62.8912328750469
 72
     2
 10
32.579840058983
 20
62.5912328750466
 40
0.3000000000003027
 50
90.0
 51
180.0
 73
     1
 72
     1
 10
32.2798400589829
 20
62.5912328750466
 11
32.2798400589829
 21
62.4612328750467
 72
     2
 10
32.579840058983
 20
62.4612328750467
 40
0.3000000000001037
 50
180.0
 51
270.0
 73
     1
 72
     1
 10
32.579840058983
 20
62.1612328750468
 11
34.6298400589829
 21
62.1612328750468
 72
     2
 10
34.6298400589829
 20
62.4612328750467
 40
0.2999999999998977
 50
270.0
 51
360.0
 73
     1
 72
     1
 10
34.9298400589829
 20
62.4612328750467
 11
34.9298400589829
 21
62.5912328750466
 97
        8
330
2EB
330
203
330
2ED
330
206
330
2EE
330
204
330
2EC
330
205
 75
     1
 76
     0
 52
45.0
 41
0.01
 77
     0
 78
     1
 53
45.0
 43
0.0
 44
0.0
 45
-0.0070710678118655
 46
0.0070710678118655
 79
     0
 98
        1
 10
0.0
 20
0.0
  0
HATCH
  5
333
330
1F
100
AcDbEntity
  8
1
  6
Continuous
 62
     4
100
AcDbHatch
 10
0.0
 20
0.0
 30
0.0
210
0.0
220
0.0
230
1.0
  2
_USER
 70
     0
 71
     1
 91
        1
 92
        1
 93
       29
 72
     1
 10
33.6870579620254
 20
55.3636883394576
 11
33.1630802504186
 21
54.5500199880377
 72
     2
 10
33.0369673367909
 20
54.6312328750468
 40
0.1500000000000981
 50
32.78030547629123
 51
90.0
 73
     0
 72
     1
 10
33.0369673367909
 20
54.4812328750467
 11
32.579840058983
 21
54.4812328750467
 72
     2
 10
32.579840058983
 20
54.7812328750466
 40
0.3000000000001037
 50
90.0
 51
180.0
 73
     0
 72
     1
 10
32.2798400589829
 20
54.7812328750466
 11
32.2798400589829
 21
54.9112328750465
 72
     2
 10
32.579840058983
 20
54.9112328750468
 40
0.2999999999997982
 50
179.999999999943
 51
270.0
 73
     0
 72
     1
 10
32.579840058983
 20
55.2112328750466
 11
33.0749092792952
 21
55.2112328750468
 72
     1
 10
33.0749092792952
 20
55.2112328750468
 11
33.0749092792952
 21
55.4462328750467
 72
     1
 10
33.0749092792952
 20
55.4462328750467
 11
32.3648400589828
 21
55.4462328750466
 72
     2
 10
32.3648400589828
 20
55.1262328750468
 40
0.3199999999997942
 50
90.0
 51
180.0
 73
     1
 72
     1
 10
32.0448400589829
 20
55.1262328750468
 11
32.0448400589829
 21
54.5662328750466
 72
     2
 10
32.3648400589828
 20
54.5662328750466
 40
0.3199999999999008
 50
180.0
 51
270.0
 73
     1
 72
     1
 10
32.3648400589828
 20
54.2462328750467
 11
33.1488107550406
 21
54.2462328750467
 72
     2
 10
33.1488107550406
 20
54.4262328750466
 40
0.1799999999999002
 50
270.0
 51
327.2647737279399
 73
     1
 72
     1
 10
33.3002228806083
 20
54.3288965086104
 11
33.8231550267657
 21
55.1423465137439
 72
     2
 10
33.9493317980723
 20
55.0612328750466
 40
0.1500000000001975
 50
212.7352262721722
 51
270.0
 73
     0
 72
     1
 10
33.9493317980723
 20
55.2112328750468
 11
34.6298400589829
 21
55.2112328750466
 72
     2
 10
34.6298400589829
 20
54.9112328750468
 40
0.2999999999999972
 50
270.0
 51
360.000000000057
 73
     0
 72
     1
 10
34.9298400589829
 20
54.9112328750465
 11
34.9298400589829
 21
54.7812328750466
 72
     2
 10
34.6298400589829
 20
54.7812328750466
 40
0.2999999999998977
 50
0.0
 51
90.0
 73
     0
 72
     1
 10
34.6298400589829
 20
54.4812328750467
 11
34.0862061354222
 21
54.4812328750467
 72
     1
 10
34.0862061354222
 20
54.4812328750467
 11
34.0862061354222
 21
54.2462328750467
 72
     1
 10
34.0862061354222
 20
54.2462328750467
 11
34.8448400589829
 21
54.2462328750467
 72
     2
 10
34.8448400589829
 20
54.5662328750466
 40
0.3199999999999008
 50
270.0
 51
360.0
 73
     1
 72
     1
 10
35.1648400589829
 20
54.5662328750466
 11
35.1648400589829
 21
55.1262328750468
 72
     2
 10
34.8448400589829
 20
55.1262328750468
 40
0.3199999999999932
 50
0.0
 51
90.0
 73
     1
 72
     1
 10
34.8448400589829
 20
55.4462328750466
 11
33.8395444470307
 21
55.4462328750467
 72
     1
 10
33.8395444470307
 20
55.4462328750467
 11
33.8383934583786
 21
55.4462328750467
 72
     2
 10
33.8383934583786
 20
55.2662328750469
 40
0.1799999999997937
 50
90.0
 51
147.2196945237607
 73
     1
 97
       29
330
210
330
2F4
330
20D
330
2F2
330
20A
330
2F1
330
207
330
211
330
1FE
330
2E6
330
1FF
330
2E5
330
20E
330
2F6
330
20B
330
2F3
330
20C
330
2EF
330
209
330
2F0
330
208
330
212
330
213
330
2E4
330
200
330
2E3
330
201
330
20F
330
2F5
 75
     1
 76
     0
 52
45.0
 41
0.01
 77
     0
 78
     1
 53
45.0
 43
0.0
 44
0.0
 45
-0.0070710678118655
 46
0.0070710678118655
 79
     0
 98
        1
 10
0.0
 20
0.0
  0
ENDSEC
  0
SECTION
  2
OBJECTS
  0
DICTIONARY
  5
C
330
0
100
AcDbDictionary
281
     1
  3
ACAD_GROUP
350
D
  3
ACAD_LAYOUT
350
1A
  3
ACAD_MATERIAL
350
43
  3
ACAD_MLEADERSTYLE
350
336
  3
ACAD_MLINESTYLE
350
17
  3
ACAD_PLOTSETTINGS
350
19
  3
ACAD_PLOTSTYLENAME
350
E
  3
ACAD_SCALELIST
350
47
  3
ACAD_VISUALSTYLE
350
2A
  3
AcDbVariableDictionary
350
334
  0
DICTIONARY
  5
D
102
{ACAD_REACTORS
330
C
102
}
330
C
100
AcDbDictionary
281
     1
  0
DICTIONARY
  5
1A
102
{ACAD_REACTORS
330
C
102
}
330
C
100
AcDbDictionary
281
     1
  3
Layout1
350
1E
  3
Layout2
350
26
  3
Model
350
22
  0
DICTIONARY
  5
43
102
{ACAD_REACTORS
330
C
102
}
330
C
100
AcDbDictionary
281
     1
  3
ByBlock
350
45
  3
ByLayer
350
44
  3
Global
350
46
  0
DICTIONARY
  5
336
102
{ACAD_REACTORS
330
C
102
}
330
C
100
AcDbDictionary
281
     1
  0
DICTIONARY
  5
17
102
{ACAD_REACTORS
330
C
102
}
330
C
100
AcDbDictionary
281
     1
  3
Standard
350
18
  0
DICTIONARY
  5
19
102
{ACAD_REACTORS
330
C
102
}
330
C
100
AcDbDictionary
281
     1
  0
ACDBDICTIONARYWDFLT
  5
E
102
{ACAD_REACTORS
330
C
102
}
330
C
100
AcDbDictionary
281
     1
  3
Normal
350
F
100
AcDbDictionaryWithDefault
340
F
  0
DICTIONARY
  5
47
102
{ACAD_REACTORS
330
C
102
}
330
C
100
AcDbDictionary
281
     1
  3
A0
350
48
  3
A1
350
49
  3
A2
350
4A
  3
A3
350
4B
  3
A4
350
4C
  3
A5
350
4D
  3
A6
350
4E
  3
A7
350
4F
  3
A8
350
50
  3
A9
350
51
  3
B0
350
52
  3
B1
350
53
  3
B2
350
54
  3
B3
350
55
  3
B4
350
56
  3
B5
350
57
  3
B6
350
58
  3
B7
350
59
  3
B8
350
5A
  3
B9
350
5B
  3
C0
350
5C
  3
C1
350
5D
  3
C2
350
5E
  3
C3
350
5F
  3
C4
350
60
  3
C5
350
61
  3
C6
350
62
  3
C7
350
63
  3
C8
350
64
  3
C9
350
65
  3
D0
350
66
  3
D1
350
67
  3
D2
350
68
  0
DICTIONARY
  5
2A
102
{ACAD_REACTORS
330
C
102
}
330
C
100
AcDbDictionary
281
     1
  3
2dWireframe
350
2F
  3
Basic
350
32
  3
Brighten
350
36
  3
ColorChange
350
3A
  3
Conceptual
350
34
  3
Dim
350
35
  3
EdgeColorOff
350
3D
  3
Facepattern
350
39
  3
Flat
350
2B
  3
FlatWithEdges
350
2C
  3
Gouraud
350
2D
  3
GouraudWithEdges
350
2E
  3
Hidden
350
31
  3
JitterOff
350
3B
  3
Linepattern
350
38
  3
OverhangOff
350
3C
  3
Realistic
350
33
  3
Shaded
350
42
  3
Shaded with edges
350
41
  3
Shades of Gray
350
3E
  3
Sketchy
350
3F
  3
Thicken
350
37
  3
Wireframe
350
30
  3
X-Ray
350
40
  0
DICTIONARY
  5
334
102
{ACAD_REACTORS
330
C
102
}
330
C
100
AcDbDictionary
281
     1
  3
CANNOSCALE
350
33B
  3
DIMASSOC
350
339
  3
HIDETEXT
350
33A
  3
MSLTSCALE
350
33C
  0
LAYOUT
  5
1E
102
{ACAD_REACTORS
330
1A
102
}
330
1A
100
AcDbPlotSettings
  1

  2
none_device
  4

  6

 40
0.0
 41
0.0
 42
0.0
 43
0.0
 44
0.0
 45
0.0
 46
0.0
 47
0.0
 48
0.0
 49
0.0
140
0.0
141
0.0
142
1.0
143
1.0
 70
   688
 72
     0
 73
     0
 74
     5
  7

 75
    16
147
1.0
148
0.0
149
0.0
100
AcDbLayout
  1
Layout1
 70
     1
 71
     1
 10
0.0
 20
0.0
 11
12.0
 21
9.0
 12
0.0
 22
0.0
 32
0.0
 14
1.00000000000000E+20
 24
1.00000000000000E+20
 34
1.00000000000000E+20
 15
-1.00000000000000E+20
 25
-1.00000000000000E+20
 35
-1.00000000000000E+20
146
0.0
 13
0.0
 23
0.0
 33
0.0
 16
1.0
 26
0.0
 36
0.0
 17
0.0
 27
1.0
 37
0.0
 76
     0
330
1B
  0
LAYOUT
  5
26
102
{ACAD_REACTORS
330
1A
102
}
330
1A
100
AcDbPlotSettings
  1

  2
none_device
  4

  6

 40
0.0
 41
0.0
 42
0.0
 43
0.0
 44
0.0
 45
0.0
 46
0.0
 47
0.0
 48
0.0
 49
0.0
140
0.0
141
0.0
142
1.0
143
1.0
 70
   688
 72
     0
 73
     0
 74
     5
  7

 75
    16
147
1.0
148
0.0
149
0.0
100
AcDbLayout
  1
Layout2
 70
     1
 71
     2
 10
0.0
 20
0.0
 11
0.0
 21
0.0
 12
0.0
 22
0.0
 32
0.0
 14
0.0
 24
0.0
 34
0.0
 15
0.0
 25
0.0
 35
0.0
146
0.0
 13
0.0
 23
0.0
 33
0.0
 16
1.0
 26
0.0
 36
0.0
 17
0.0
 27
1.0
 37
0.0
 76
     0
330
23
  0
LAYOUT
  5
22
102
{ACAD_REACTORS
330
1A
102
}
330
1A
100
AcDbPlotSettings
  1

  2
none_device
  4
Letter_(8.50_x_11.00_Inches)
  6

 40
6.35
 41
6.35
 42
6.35000508
 43
6.35000508
 44
215.9
 45
279.4
 46
0.0
 47
0.0
 48
0.0
 49
0.0
140
0.0
141
0.0
142
1.0
143
1.0
 70
  1712
 72
     0
 73
     0
 74
     0
  7

 75
     0
147
1.0
148
0.0
149
0.0
100
AcDbLayout
  1
Model
 70
     1
 71
     0
 10
0.0
 20
0.0
 11
12.0
 21
9.0
 12
0.0
 22
0.0
 32
0.0
 14
-70.0
 24
-27.3443355089935
 34
0.0
 15
81.3862217972298
 25
73.902295324546
 35
0.0
146
0.0
 13
0.0
 23
0.0
 33
0.0
 16
1.0
 26
0.0
 36
0.0
 17
0.0
 27
1.0
 37
0.0
 76
     0
330
1F
331
29
  0
MATERIAL
  5
45
102
{ACAD_REACTORS
330
43
102
}
102
{ACAD_XDICTIONARY
360
36F
102
}
330
43
100
AcDbMaterial
  1
ByBlock
  0
MATERIAL
  5
44
102
{ACAD_REACTORS
330
43
102
}
102
{ACAD_XDICTIONARY
360
36D
102
}
330
43
100
AcDbMaterial
  1
ByLayer
  0
MATERIAL
  5
46
102
{ACAD_REACTORS
330
43
102
}
102
{ACAD_XDICTIONARY
360
371
102
}
330
43
100
AcDbMaterial
  1
Global
  0
MLINESTYLE
  5
18
102
{ACAD_REACTORS
330
17
102
}
330
17
100
AcDbMlineStyle
  2
Standard
 70
     0
  3

 62
   256
 51
90.0
 52
90.0
 71
     2
 49
0.5
 62
   256
  6
BYLAYER
 49
-0.5
 62
   256
  6
BYLAYER
  0
ACDBPLACEHOLDER
  5
F
102
{ACAD_REACTORS
330
E
102
}
330
E
  0
SCALE
  5
48
102
{ACAD_REACTORS
330
47
102
}
330
47
100
AcDbScale
 70
     0
300
1:1
140
1.0
141
1.0
290
     1
  0
SCALE
  5
49
102
{ACAD_REACTORS
330
47
102
}
330
47
100
AcDbScale
 70
     0
300
1:2
140
1.0
141
2.0
290
     0
  0
SCALE
  5
4A
102
{ACAD_REACTORS
330
47
102
}
330
47
100
AcDbScale
 70
     0
300
1:4
140
1.0
141
4.0
290
     0
  0
SCALE
  5
4B
102
{ACAD_REACTORS
330
47
102
}
330
47
100
AcDbScale
 70
     0
300
1:5
140
1.0
141
5.0
290
     0
  0
SCALE
  5
4C
102
{ACAD_REACTORS
330
47
102
}
330
47
100
AcDbScale
 70
     0
300
1:8
140
1.0
141
8.0
290
     0
  0
SCALE
  5
4D
102
{ACAD_REACTORS
330
47
102
}
330
47
100
AcDbScale
 70
     0
300
1:10
140
1.0
141
10.0
290
     0
  0
SCALE
  5
4E
102
{ACAD_REACTORS
330
47
102
}
330
47
100
AcDbScale
 70
     0
300
1:16
140
1.0
141
16.0
290
     0
  0
SCALE
  5
4F
102
{ACAD_REACTORS
330
47
102
}
330
47
100
AcDbScale
 70
     0
300
1:20
140
1.0
141
20.0
290
     0
  0
SCALE
  5
50
102
{ACAD_REACTORS
330
47
102
}
330
47
100
AcDbScale
 70
     0
300
1:30
140
1.0
141
30.0
290
     0
  0
SCALE
  5
51
102
{ACAD_REACTORS
330
47
102
}
330
47
100
AcDbScale
 70
     0
300
1:40
140
1.0
141
40.0
290
     0
  0
SCALE
  5
52
102
{ACAD_REACTORS
330
47
102
}
330
47
100
AcDbScale
 70
     0
300
1:50
140
1.0
141
50.0
290
     0
  0
SCALE
  5
53
102
{ACAD_REACTORS
330
47
102
}
330
47
100
AcDbScale
 70
     0
300
1:100
140
1.0
141
100.0
290
     0
  0
SCALE
  5
54
102
{ACAD_REACTORS
330
47
102
}
330
47
100
AcDbScale
 70
     0
300
2:1
140
2.0
141
1.0
290
     0
  0
SCALE
  5
55
102
{ACAD_REACTORS
330
47
102
}
330
47
100
AcDbScale
 70
     0
300
4:1
140
4.0
141
1.0
290
     0
  0
SCALE
  5
56
102
{ACAD_REACTORS
330
47
102
}
330
47
100
AcDbScale
 70
     0
300
8:1
140
8.0
141
1.0
290
     0
  0
SCALE
  5
57
102
{ACAD_REACTORS
330
47
102
}
330
47
100
AcDbScale
 70
     0
300
10:1
140
10.0
141
1.0
290
     0
  0
SCALE
  5
58
102
{ACAD_REACTORS
330
47
102
}
330
47
100
AcDbScale
 70
     0
300
100:1
140
100.0
141
1.0
290
     0
  0
SCALE
  5
59
102
{ACAD_REACTORS
330
47
102
}
330
47
100
AcDbScale
 70
     0
300
1/128" = 1'-0"
140
0.0078125
141
12.0
290
     0
  0
SCALE
  5
5A
102
{ACAD_REACTORS
330
47
102
}
330
47
100
AcDbScale
 70
     0
300
1/64" = 1'-0"
140
0.015625
141
12.0
290
     0
  0
SCALE
  5
5B
102
{ACAD_REACTORS
330
47
102
}
330
47
100
AcDbScale
 70
     0
300
1/32" = 1'-0"
140
0.03125
141
12.0
290
     0
  0
SCALE
  5
5C
102
{ACAD_REACTORS
330
47
102
}
330
47
100
AcDbScale
 70
     0
300
1/16" = 1'-0"
140
0.0625
141
12.0
290
     0
  0
SCALE
  5
5D
102
{ACAD_REACTORS
330
47
102
}
330
47
100
AcDbScale
 70
     0
300
3/32" = 1'-0"
140
0.09375
141
12.0
290
     0
  0
SCALE
  5
5E
102
{ACAD_REACTORS
330
47
102
}
330
47
100
AcDbScale
 70
     0
300
1/8" = 1'-0"
140
0.125
141
12.0
290
     0
  0
SCALE
  5
5F
102
{ACAD_REACTORS
330
47
102
}
330
47
100
AcDbScale
 70
     0
300
3/16" = 1'-0"
140
0.1875
141
12.0
290
     0
  0
SCALE
  5
60
102
{ACAD_REACTORS
330
47
102
}
330
47
100
AcDbScale
 70
     0
300
1/4" = 1'-0"
140
0.25
141
12.0
290
     0
  0
SCALE
  5
61
102
{ACAD_REACTORS
330
47
102
}
330
47
100
AcDbScale
 70
     0
300
3/8" = 1'-0"
140
0.375
141
12.0
290
     0
  0
SCALE
  5
62
102
{ACAD_REACTORS
330
47
102
}
330
47
100
AcDbScale
 70
     0
300
1/2" = 1'-0"
140
0.5
141
12.0
290
     0
  0
SCALE
  5
63
102
{ACAD_REACTORS
330
47
102
}
330
47
100
AcDbScale
 70
     0
300
3/4" = 1'-0"
140
0.75
141
12.0
290
     0
  0
SCALE
  5
64
102
{ACAD_REACTORS
330
47
102
}
330
47
100
AcDbScale
 70
     0
300
1" = 1'-0"
140
1.0
141
12.0
290
     0
  0
SCALE
  5
65
102
{ACAD_REACTORS
330
47
102
}
330
47
100
AcDbScale
 70
     0
300
1-1/2" = 1'-0"
140
1.5
141
12.0
290
     0
  0
SCALE
  5
66
102
{ACAD_REACTORS
330
47
102
}
330
47
100
AcDbScale
 70
     0
300
3" = 1'-0"
140
3.0
141
12.0
290
     0
  0
SCALE
  5
67
102
{ACAD_REACTORS
330
47
102
}
330
47
100
AcDbScale
 70
     0
300
6" = 1'-0"
140
6.0
141
12.0
290
     0
  0
SCALE
  5
68
102
{ACAD_REACTORS
330
47
102
}
330
47
100
AcDbScale
 70
     0
300
1'-0" = 1'-0"
140
12.0
141
12.0
290
     0
  0
VISUALSTYLE
  5
2F
102
{ACAD_REACTORS
330
2A
102
}
102
{ACAD_XDICTIONARY
360
345
102
}
330
2A
100
AcDbVisualStyle
  2
2dWireframe
 70
     4
 71
     0
 72
     2
 73
     0
 90
        0
 40
0.6
 41
30.0
 62
     5
 63
     7
 74
     1
 91
        4
 64
     7
 65
   257
 75
     1
175
     1
 42
1.0
 92
        0
 66
   257
 43
1.0
 76
     1
 77
     6
 78
     2
 67
     7
 79
     5
170
     0
171
     0
290
     0
174
     0
 93
        1
 44
0.0
173
     0
291
     0
 45
0.0
1001
ACAD
1000
AcDbSavedByObjectVersion
1070
     0
  0
VISUALSTYLE
  5
32
102
{ACAD_REACTORS
330
2A
102
}
102
{ACAD_XDICTIONARY
360
34B
102
}
330
2A
100
AcDbVisualStyle
  2
Basic
 70
     7
 71
     1
 72
     0
 73
     1
 90
        0
 40
0.6
 41
30.0
 62
     5
 63
     7
 74
     0
 91
        4
 64
     7
 65
   257
 75
     1
175
     1
 42
1.0
 92
        8
 66
     7
 43
1.0
 76
     1
 77
     6
 78
     2
 67
     7
 79
     5
170
     0
171
     0
290
     0
174
     0
 93
        1
 44
0.0
173
     0
291
     1
 45
0.0
1001
ACAD
1000
AcDbSavedByObjectVersion
1070
     0
  0
VISUALSTYLE
  5
36
102
{ACAD_REACTORS
330
2A
102
}
102
{ACAD_XDICTIONARY
360
353
102
}
330
2A
100
AcDbVisualStyle
  2
Brighten
 70
    12
 71
     2
 72
     2
 73
     0
 90
        0
 40
0.6
 41
30.0
 62
     5
 63
     7
 74
     1
 91
        4
 64
     7
 65
   257
 75
     1
175
     1
 42
1.0
 92
        8
 66
     7
 43
1.0
 76
     1
 77
     6
 78
     2
 67
     7
 79
     5
170
     0
171
     0
290
     0
174
     0
 93
        1
 44
50.0
173
     0
291
     1
 45
0.0
1001
ACAD
1000
AcDbSavedByObjectVersion
1070
     0
  0
VISUALSTYLE
  5
3A
102
{ACAD_REACTORS
330
2A
102
}
102
{ACAD_XDICTIONARY
360
35B
102
}
330
2A
100
AcDbVisualStyle
  2
ColorChange
 70
    16
 71
     2
 72
     2
 73
     3
 90
        0
 40
0.6
 41
30.0
 62
     5
 63
     8
 74
     1
 91
        4
 64
     7
 65
   257
 75
     1
175
     1
 42
1.0
 92
        8
 66
     8
 43
1.0
 76
     1
 77
     6
 78
     2
 67
     7
 79
     5
170
     0
171
     0
290
     0
174
     0
 93
        1
 44
0.0
173
     0
291
     1
 45
0.0
1001
ACAD
1000
AcDbSavedByObjectVersion
1070
     0
  0
VISUALSTYLE
  5
34
102
{ACAD_REACTORS
330
2A
102
}
102
{ACAD_XDICTIONARY
360
34F
102
}
330
2A
100
AcDbVisualStyle
  2
Conceptual
 70
     9
 71
     3
 72
     2
 73
     0
 90
        0
 40
0.6
 41
30.0
 62
     5
 63
     7
 74
     2
 91
        2
 64
     7
 65
   257
 75
     1
175
     1
 42
179.0
 92
        8
 66
     7
 43
1.0
 76
     1
 77
     6
 78
     2
 67
     7
 79
     3
170
     0
171
     0
290
     0
174
     0
 93
        1
 44
0.0
173
     0
291
     0
 45
0.0
1001
ACAD
1000
AcDbSavedByObjectVersion
1070
     0
  0
VISUALSTYLE
  5
35
102
{ACAD_REACTORS
330
2A
102
}
102
{ACAD_XDICTIONARY
360
351
102
}
330
2A
100
AcDbVisualStyle
  2
Dim
 70
    11
 71
     2
 72
     2
 73
     0
 90
        0
 40
0.6
 41
30.0
 62
     5
 63
     7
 74
     1
 91
        4
 64
     7
 65
   257
 75
     1
175
     1
 42
1.0
 92
        8
 66
     7
 43
1.0
 76
     1
 77
     6
 78
     2
 67
     7
 79
     5
170
     0
171
     0
290
     0
174
     0
 93
        1
 44
-50.0
173
     0
291
     1
 45
0.0
1001
ACAD
1000
AcDbSavedByObjectVersion
1070
     0
  0
VISUALSTYLE
  5
3D
102
{ACAD_REACTORS
330
2A
102
}
102
{ACAD_XDICTIONARY
360
361
102
}
330
2A
100
AcDbVisualStyle
  2
EdgeColorOff
 70
    22
 71
     2
 72
     2
 73
     0
 90
        0
 40
0.6
 41
30.0
 62
     5
 63
     7
 74
     1
 91
        4
 64
     7
 65
   257
 75
     1
175
     1
 42
1.0
 92
        8
 66
     7
 43
1.0
 76
     1
 77
     6
 78
     2
 67
     7
 79
     5
170
     0
171
     0
290
     0
174
     0
 93
        1
 44
0.0
173
     0
291
     1
 45
0.0
1001
ACAD
1000
AcDbSavedByObjectVersion
1070
     0
  0
VISUALSTYLE
  5
39
102
{ACAD_REACTORS
330
2A
102
}
102
{ACAD_XDICTIONARY
360
359
102
}
330
2A
100
AcDbVisualStyle
  2
Facepattern
 70
    15
 71
     2
 72
     2
 73
     0
 90
        0
 40
0.6
 41
30.0
 62
     5
 63
     7
 74
     1
 91
        4
 64
     7
 65
   257
 75
     1
175
     1
 42
1.0
 92
        8
 66
     7
 43
1.0
 76
     1
 77
     6
 78
     2
 67
     7
 79
     5
170
     0
171
     0
290
     0
174
     0
 93
        1
 44
0.0
173
     0
291
     1
 45
0.0
1001
ACAD
1000
AcDbSavedByObjectVersion
1070
     0
  0
VISUALSTYLE
  5
2B
102
{ACAD_REACTORS
330
2A
102
}
102
{ACAD_XDICTIONARY
360
33D
102
}
330
2A
100
AcDbVisualStyle
  2
Flat
 70
     0
 71
     2
 72
     1
 73
     1
 90
        2
 40
0.6
 41
30.0
 62
     5
 63
     7
 74
     0
 91
        0
 64
     7
 65
   257
 75
     1
175
     1
 42
1.0
 92
        8
 66
     7
 43
1.0
 76
     1
 77
     6
 78
     2
 67
     7
 79
     5
170
     0
171
     0
290
     0
174
     0
 93
       13
 44
0.0
173
     0
291
     1
 45
0.0
1001
ACAD
1000
AcDbSavedByObjectVersion
1070
     0
  0
VISUALSTYLE
  5
2C
102
{ACAD_REACTORS
330
2A
102
}
102
{ACAD_XDICTIONARY
360
33F
102
}
330
2A
100
AcDbVisualStyle
  2
FlatWithEdges
 70
     1
 71
     2
 72
     1
 73
     1
 90
        2
 40
0.6
 41
30.0
 62
     5
 63
     7
 74
     1
 91
        0
 64
     7
 65
   257
 75
     1
175
     1
 42
1.0
 92
        0
 66
   257
 43
1.0
 76
     1
 77
     6
 78
     2
 67
     7
 79
     5
170
     0
171
     0
290
     0
174
     0
 93
       13
 44
0.0
173
     0
291
     1
 45
0.0
1001
ACAD
1000
AcDbSavedByObjectVersion
1070
     0
  0
VISUALSTYLE
  5
2D
102
{ACAD_REACTORS
330
2A
102
}
102
{ACAD_XDICTIONARY
360
341
102
}
330
2A
100
AcDbVisualStyle
  2
Gouraud
 70
     2
 71
     2
 72
     2
 73
     1
 90
        2
 40
0.6
 41
30.0
 62
     5
 63
     7
 74
     0
 91
        0
 64
     7
 65
   257
 75
     1
175
     1
 42
1.0
 92
        0
 66
     7
 43
1.0
 76
     1
 77
     6
 78
     2
 67
     7
 79
     5
170
     0
171
     0
290
     0
174
     0
 93
       13
 44
0.0
173
     0
291
     1
 45
0.0
1001
ACAD
1000
AcDbSavedByObjectVersion
1070
     0
  0
VISUALSTYLE
  5
2E
102
{ACAD_REACTORS
330
2A
102
}
102
{ACAD_XDICTIONARY
360
343
102
}
330
2A
100
AcDbVisualStyle
  2
GouraudWithEdges
 70
     3
 71
     2
 72
     2
 73
     1
 90
        2
 40
0.6
 41
30.0
 62
     5
 63
     7
 74
     1
 91
        0
 64
     7
 65
   257
 75
     1
175
     1
 42
1.0
 92
        0
 66
   257
 43
1.0
 76
     1
 77
     6
 78
     2
 67
     7
 79
     5
170
     0
171
     0
290
     0
174
     0
 93
       13
 44
0.0
173
     0
291
     1
 45
0.0
1001
ACAD
1000
AcDbSavedByObjectVersion
1070
     0
  0
VISUALSTYLE
  5
31
102
{ACAD_REACTORS
330
2A
102
}
102
{ACAD_XDICTIONARY
360
349
102
}
330
2A
100
AcDbVisualStyle
  2
Hidden
 70
     6
 71
     1
 72
     2
 73
     2
 90
        0
 40
0.6
 41
30.0
 62
     5
 63
     7
 74
     2
 91
        2
 64
     7
 65
   257
 75
     2
175
     1
 42
40.0
 92
        0
 66
   257
 43
1.0
 76
     1
 77
     6
 78
     2
 67
     7
 79
     3
170
     0
171
     0
290
     0
174
     0
 93
        1
 44
0.0
173
     0
291
     0
 45
0.0
1001
ACAD
1000
AcDbSavedByObjectVersion
1070
     0
  0
VISUALSTYLE
  5
3B
102
{ACAD_REACTORS
330
2A
102
}
102
{ACAD_XDICTIONARY
360
35D
102
}
330
2A
100
AcDbVisualStyle
  2
JitterOff
 70
    20
 71
     2
 72
     2
 73
     0
 90
        0
 40
0.6
 41
30.0
 62
     5
 63
     7
 74
     1
 91
        4
 64
     7
 65
   257
 75
     1
175
     1
 42
1.0
 92
       10
 66
     7
 43
1.0
 76
     1
 77
     6
 78
     2
 67
     7
 79
     5
170
     0
171
     0
290
     0
174
     0
 93
        1
 44
0.0
173
     0
291
     1
 45
0.0
1001
ACAD
1000
AcDbSavedByObjectVersion
1070
     0
  0
VISUALSTYLE
  5
38
102
{ACAD_REACTORS
330
2A
102
}
102
{ACAD_XDICTIONARY
360
357
102
}
330
2A
100
AcDbVisualStyle
  2
Linepattern
 70
    14
 71
     2
 72
     2
 73
     0
 90
        0
 40
0.6
 41
30.0
 62
     5
 63
     7
 74
     1
 91
        4
 64
     7
 65
   257
 75
     7
175
     7
 42
1.0
 92
        8
 66
     7
 43
1.0
 76
     1
 77
     6
 78
     2
 67
     7
 79
     5
170
     0
171
     0
290
     0
174
     0
 93
        1
 44
0.0
173
     0
291
     1
 45
0.0
1001
ACAD
1000
AcDbSavedByObjectVersion
1070
     0
  0
VISUALSTYLE
  5
3C
102
{ACAD_REACTORS
330
2A
102
}
102
{ACAD_XDICTIONARY
360
35F
102
}
330
2A
100
AcDbVisualStyle
  2
OverhangOff
 70
    21
 71
     2
 72
     2
 73
     0
 90
        0
 40
0.6
 41
30.0
 62
     5
 63
     7
 74
     1
 91
        4
 64
     7
 65
   257
 75
     1
175
     1
 42
1.0
 92
        9
 66
     7
 43
1.0
 76
     1
 77
     6
 78
     2
 67
     7
 79
     5
170
     0
171
     0
290
     0
174
     0
 93
        1
 44
0.0
173
     0
291
     1
 45
0.0
1001
ACAD
1000
AcDbSavedByObjectVersion
1070
     0
  0
VISUALSTYLE
  5
33
102
{ACAD_REACTORS
330
2A
102
}
102
{ACAD_XDICTIONARY
360
34D
102
}
330
2A
100
AcDbVisualStyle
  2
Realistic
 70
     8
 71
     2
 72
     3
 73
     0
 90
        2
 40
0.6
 41
30.0
 62
     5
 63
     7
 74
     0
 91
        0
 64
     7
 65
   257
 75
     1
175
     1
 42
1.0
 92
        8
 66
   257
 43
1.0
 76
     1
 77
     6
 78
     2
 67
     7
 79
     3
170
     0
171
     0
290
     0
174
     0
 93
       13
 44
0.0
173
     0
291
     0
 45
0.0
1001
ACAD
1000
AcDbSavedByObjectVersion
1070
     0
  0
VISUALSTYLE
  5
42
102
{ACAD_REACTORS
330
2A
102
}
102
{ACAD_XDICTIONARY
360
36B
102
}
330
2A
100
AcDbVisualStyle
  2
Shaded
 70
    27
 71
     2
 72
     2
 73
     1
 90
        2
 40
0.6
 41
30.0
 62
     5
 63
     7
 74
     0
 91
        4
 64
     7
 65
   257
 75
     1
175
     1
 42
1.0
 92
        8
 66
   257
 43
1.0
 76
     1
 77
     6
 78
     2
 67
     8
 79
     3
170
     0
171
     0
290
     0
174
     0
 93
        5
 44
0.0
173
     0
291
     0
 45
0.0
1001
ACAD
1000
AcDbSavedByObjectVersion
1070
     0
  0
VISUALSTYLE
  5
41
102
{ACAD_REACTORS
330
2A
102
}
102
{ACAD_XDICTIONARY
360
369
102
}
330
2A
100
AcDbVisualStyle
  2
Shaded with edges
 70
    26
 71
     2
 72
     2
 73
     1
 90
        2
 40
0.6
 41
30.0
 62
     5
 63
     7
 74
     1
 91
       10
 64
     7
 65
   257
 75
     2
175
     1
 42
1.0
 92
        8
 66
   257
 43
1.0
 76
     1
 77
     6
 78
     2
 67
     7
 79
     3
170
     0
171
     0
290
     0
174
     0
 93
        5
 44
0.0
173
     0
291
     0
 45
0.0
1001
ACAD
1000
AcDbSavedByObjectVersion
1070
     0
  0
VISUALSTYLE
  5
3E
102
{ACAD_REACTORS
330
2A
102
}
102
{ACAD_XDICTIONARY
360
363
102
}
330
2A
100
AcDbVisualStyle
  2
Shades of Gray
 70
    23
 71
     2
 72
     2
 73
     3
 90
        0
 40
0.6
 41
30.0
 62
     5
 63
     7
 74
     2
 91
        2
 64
     7
 65
     7
 75
     1
175
     1
 42
40.0
 92
        8
 66
     7
 43
1.0
 76
     1
 77
     6
 78
     2
 67
     7
 79
     3
170
     0
171
     0
290
     0
174
     0
 93
        1
 44
0.0
173
     0
291
     0
 45
0.0
1001
ACAD
1000
AcDbSavedByObjectVersion
1070
     0
  0
VISUALSTYLE
  5
3F
102
{ACAD_REACTORS
330
2A
102
}
102
{ACAD_XDICTIONARY
360
365
102
}
330
2A
100
AcDbVisualStyle
  2
Sketchy
 70
    24
 71
     1
 72
     2
 73
     2
 90
        0
 40
0.6
 41
30.0
 62
     5
 63
     7
 74
     2
 91
        2
 64
     7
 65
     7
 75
     1
175
     1
 42
40.0
 92
       11
 66
     7
 43
1.0
 76
     1
 77
     6
 78
     2
 67
     7
 79
     6
170
     0
171
     0
290
     0
174
     0
 93
        1
 44
0.0
173
     0
291
     0
 45
0.0
1001
ACAD
1000
AcDbSavedByObjectVersion
1070
     0
  0
VISUALSTYLE
  5
37
102
{ACAD_REACTORS
330
2A
102
}
102
{ACAD_XDICTIONARY
360
355
102
}
330
2A
100
AcDbVisualStyle
  2
Thicken
 70
    13
 71
     2
 72
     2
 73
     0
 90
        0
 40
0.6
 41
30.0
 62
     5
 63
     7
 74
     1
 91
        4
 64
     7
 65
   257
 75
     1
175
     1
 42
1.0
 92
       12
 66
     7
 43
1.0
 76
     1
 77
     6
 78
     2
 67
     7
 79
     5
170
     0
171
     0
290
     0
174
     0
 93
        1
 44
0.0
173
     0
291
     1
 45
0.0
1001
ACAD
1000
AcDbSavedByObjectVersion
1070
     0
  0
VISUALSTYLE
  5
30
102
{ACAD_REACTORS
330
2A
102
}
102
{ACAD_XDICTIONARY
360
347
102
}
330
2A
100
AcDbVisualStyle
  2
Wireframe
 70
     5
 71
     0
 72
     2
 73
     0
 90
        0
 40
0.6
 41
30.0
 62
     5
 63
     7
 74
     1
 91
        4
 64
     7
 65
   257
 75
     1
175
     1
 42
1.0
 92
        0
 66
   257
 43
1.0
 76
     1
 77
     6
 78
     2
 67
     7
 79
     3
170
     0
171
     0
290
     0
174
     0
 93
        1
 44
0.0
173
     0
291
     0
 45
0.0
1001
ACAD
1000
AcDbSavedByObjectVersion
1070
     0
  0
VISUALSTYLE
  5
40
102
{ACAD_REACTORS
330
2A
102
}
102
{ACAD_XDICTIONARY
360
367
102
}
330
2A
100
AcDbVisualStyle
  2
X-Ray
 70
    25
 71
     2
 72
     2
 73
     1
 90
        1
 40
0.5
 41
30.0
 62
     5
 63
     7
 74
     1
 91
        0
 64
     7
 65
   257
 75
     1
175
     1
 42
1.0
 92
        8
 66
     7
 43
1.0
 76
     1
 77
     6
 78
     2
 67
     7
 79
     3
170
     0
171
     0
290
     0
174
     0
 93
       13
 44
0.0
173
     0
291
     0
 45
0.0
1001
ACAD
1000
AcDbSavedByObjectVersion
1070
     0
  0
DICTIONARYVAR
  5
33B
102
{ACAD_REACTORS
330
334
102
}
330
334
100
DictionaryVariables
280
     0
  1
1:1
  0
DICTIONARYVAR
  5
339
102
{ACAD_REACTORS
330
334
102
}
330
334
100
DictionaryVariables
280
     0
  1
2
  0
DICTIONARYVAR
  5
33A
102
{ACAD_REACTORS
330
334
102
}
330
334
100
DictionaryVariables
280
     0
  1
1
  0
DICTIONARYVAR
  5
33C
102
{ACAD_REACTORS
330
334
102
}
330
334
100
DictionaryVariables
280
     0
  1
1
  0
DICTIONARY
  5
36F
330
45
100
AcDbDictionary
280
     1
281
     1
  3
ACAD_XREC_ROUNDTRIP
360
370
  0
DICTIONARY
  5
36D
330
44
100
AcDbDictionary
280
     1
281
     1
  3
ACAD_XREC_ROUNDTRIP
360
36E
  0
DICTIONARY
  5
371
330
46
100
AcDbDictionary
280
     1
281
     1
  3
ACAD_XREC_ROUNDTRIP
360
372
  0
DICTIONARY
  5
345
330
2F
100
AcDbDictionary
280
     1
281
     1
  3
ACAD_XREC_ROUNDTRIP
360
346
  0
DICTIONARY
  5
34B
330
32
100
AcDbDictionary
280
     1
281
     1
  3
ACAD_XREC_ROUNDTRIP
360
34C
  0
DICTIONARY
  5
353
330
36
100
AcDbDictionary
280
     1
281
     1
  3
ACAD_XREC_ROUNDTRIP
360
354
  0
DICTIONARY
  5
35B
330
3A
100
AcDbDictionary
280
     1
281
     1
  3
ACAD_XREC_ROUNDTRIP
360
35C
  0
DICTIONARY
  5
34F
330
34
100
AcDbDictionary
280
     1
281
     1
  3
ACAD_XREC_ROUNDTRIP
360
350
  0
DICTIONARY
  5
351
330
35
100
AcDbDictionary
280
     1
281
     1
  3
ACAD_XREC_ROUNDTRIP
360
352
  0
DICTIONARY
  5
361
330
3D
100
AcDbDictionary
280
     1
281
     1
  3
ACAD_XREC_ROUNDTRIP
360
362
  0
DICTIONARY
  5
359
330
39
100
AcDbDictionary
280
     1
281
     1
  3
ACAD_XREC_ROUNDTRIP
360
35A
  0
DICTIONARY
  5
33D
330
2B
100
AcDbDictionary
280
     1
281
     1
  3
ACAD_XREC_ROUNDTRIP
360
33E
  0
DICTIONARY
  5
33F
330
2C
100
AcDbDictionary
280
     1
281
     1
  3
ACAD_XREC_ROUNDTRIP
360
340
  0
DICTIONARY
  5
341
330
2D
100
AcDbDictionary
280
     1
281
     1
  3
ACAD_XREC_ROUNDTRIP
360
342
  0
DICTIONARY
  5
343
330
2E
100
AcDbDictionary
280
     1
281
     1
  3
ACAD_XREC_ROUNDTRIP
360
344
  0
DICTIONARY
  5
349
330
31
100
AcDbDictionary
280
     1
281
     1
  3
ACAD_XREC_ROUNDTRIP
360
34A
  0
DICTIONARY
  5
35D
330
3B
100
AcDbDictionary
280
     1
281
     1
  3
ACAD_XREC_ROUNDTRIP
360
35E
  0
DICTIONARY
  5
357
330
38
100
AcDbDictionary
280
     1
281
     1
  3
ACAD_XREC_ROUNDTRIP
360
358
  0
DICTIONARY
  5
35F
330
3C
100
AcDbDictionary
280
     1
281
     1
  3
ACAD_XREC_ROUNDTRIP
360
360
  0
DICTIONARY
  5
34D
330
33
100
AcDbDictionary
280
     1
281
     1
  3
ACAD_XREC_ROUNDTRIP
360
34E
  0
DICTIONARY
  5
36B
330
42
100
AcDbDictionary
280
     1
281
     1
  3
ACAD_XREC_ROUNDTRIP
360
36C
  0
DICTIONARY
  5
369
330
41
100
AcDbDictionary
280
     1
281
     1
  3
ACAD_XREC_ROUNDTRIP
360
36A
  0
DICTIONARY
  5
363
330
3E
100
AcDbDictionary
280
     1
281
     1
  3
ACAD_XREC_ROUNDTRIP
360
364
  0
DICTIONARY
  5
365
330
3F
100
AcDbDictionary
280
     1
281
     1
  3
ACAD_XREC_ROUNDTRIP
360
366
  0
DICTIONARY
  5
355
330
37
100
AcDbDictionary
280
     1
281
     1
  3
ACAD_XREC_ROUNDTRIP
360
356
  0
DICTIONARY
  5
347
330
30
100
AcDbDictionary
280
     1
281
     1
  3
ACAD_XREC_ROUNDTRIP
360
348
  0
DICTIONARY
  5
367
330
40
100
AcDbDictionary
280
     1
281
     1
  3
ACAD_XREC_ROUNDTRIP
360
368
  0
XRECORD
  5
370
102
{ACAD_REACTORS
330
36F
102
}
330
36F
100
AcDbXrecord
280
     1
102
MATERIAL
148
0.0
149
0.0
149
0.0
 93
        0
 94
      127
282
     0
 72
     1
 77
     1
171
     1
175
     1
179
     1
273
     0
  0
XRECORD
  5
36E
102
{ACAD_REACTORS
330
36D
102
}
330
36D
100
AcDbXrecord
280
     1
102
MATERIAL
148
0.0
149
0.0
149
0.0
 93
        0
 94
      127
282
     0
 72
     1
 77
     1
171
     1
175
     1
179
     1
273
     0
  0
XRECORD
  5
372
102
{ACAD_REACTORS
330
371
102
}
330
371
100
AcDbXrecord
280
     1
102
MATERIAL
148
0.0
149
0.0
149
0.0
 93
        0
 94
      127
282
     0
 72
     1
 77
     1
171
     1
175
     1
179
     1
273
     0
  0
XRECORD
  5
346
102
{ACAD_REACTORS
330
345
102
}
330
345
100
AcDbXrecord
280
     1
102
RTVSPropertyOp0
 70
     1
102
RTVSPropertyOp1
 70
     1
102
RTVSPropertyOp2
 70
     1
102
RTVSPropertyOp3
 70
     1
102
RTVSPropertyOp4
 70
     1
102
RTVSPropertyOp5
 70
     1
102
RTVSPropertyOp6
 70
     1
102
RTVSPropertyOp7
 70
     1
102
RTVSPropertyOp8
 70
     1
102
RTVSPropertyOp9
 70
     1
102
RTVSPropertyOp10
 70
     1
102
RTVSPropertyOp11
 70
     1
102
RTVSPropertyOp12
 70
     1
102
RTVSPropertyOp13
 70
     1
102
RTVSPropertyOp14
 70
     1
102
RTVSPropertyOp15
 70
     1
102
RTVSPropertyOp16
 70
     1
102
RTVSPropertyOp17
 70
     1
102
RTVSPropertyOp18
 70
     1
102
RTVSPropertyOp19
 70
     1
102
RTVSPropertyOp20
 70
     1
102
RTVSPropertyOp21
 70
     1
102
RTVSPropertyOp22
 70
     1
102
RTVSPropertyOp23
 70
     1
102
RTVSPropertyOp24
 70
     1
102
RTVSPropertyOp25
 70
     1
102
RTVSPropertyOp26
 70
     1
102
RTVSPropertyOp27
 70
     1
102
RTVSPropertyOp28
 70
     1
102
RTVSPropertyOp29
 70
     1
102
RTVSPropertyOp30
 70
     1
102
RTVSPropertyOp31
 70
     1
102
RTVSPropertyOp32
 70
     1
102
RTVSPropertyOp33
 70
     1
102
RTVSPropertyOp34
 70
     1
102
RTVSPropertyOp35
 70
     1
102
RTVSPropertyOp36
 70
     1
102
RTVSPropertyOp37
 70
     1
102
RTVSPropertyOp38
 70
     1
102
RTVSPropertyOp39
 70
     1
102
RTVSPropertyOp40
 70
     1
102
RTVSPropertyOp41
 70
     1
102
RTVSPropertyOp42
 70
     1
102
RTVSPropertyOp43
 70
     1
102
RTVSPropertyOp44
 70
     1
102
RTVSPropertyOp45
 70
     1
102
RTVSPropertyOp46
 70
     1
102
RTVSPropertyOp47
 70
     1
102
RTVSPropertyOp48
 70
     1
102
RTVSPropertyOp49
 70
     1
102
RTVSPropertyOp50
 70
     1
102
RTVSPropertyOp51
 70
     0
102
RTVSPropertyOp52
 70
     0
102
RTVSPropertyOp53
 70
     1
102
RTVSPropertyOp54
 70
     1
102
RTVSPropertyOp55
 70
     1
102
RTVSPropertyOp56
 70
     1
102
RTVSPropertyOp57
 70
     1
102
RTVSPost2010Prop28
280
     1
102
RTVSPost2010PropOp28
 70
     1
102
RTVSPost2010Prop29
280
     1
102
RTVSPost2010PropOp29
 70
     1
102
RTVSPost2010Prop30
280
     0
102
RTVSPost2010PropOp30
 70
     1
102
RTVSPost2010Prop31
280
     0
102
RTVSPost2010PropOp31
 70
     1
102
RTVSPost2010Prop32
280
     0
102
RTVSPost2010PropOp32
 70
     1
102
RTVSPost2010Prop33
280
     0
102
RTVSPost2010PropOp33
 70
     1
102
RTVSPost2010Prop34
280
     0
102
RTVSPost2010PropOp34
 70
     1
102
RTVSPost2010Prop35
280
     0
102
RTVSPost2010PropOp35
 70
     1
102
RTVSPost2010Prop36
280
     0
102
RTVSPost2010PropOp36
 70
     1
102
RTVSPost2010Prop37
 90
       50
102
RTVSPost2010PropOp37
 70
     1
102
RTVSPost2010Prop38
140
0.0
102
RTVSPost2010PropOp38
 70
     1
102
RTVSPost2010Prop39
140
1.0
102
RTVSPost2010PropOp39
 70
     1
102
RTVSPost2010Prop40
 90
        0
102
RTVSPost2010PropOp40
 70
     1
102
RTVSPost2010Prop41ColorIndex
 90
       18
102
RTVSPost2010Prop41ColorRGB
 90
        0
102
RTVSPost2010PropOp41
 70
     1
102
RTVSPost2010Prop42
 90
       50
102
RTVSPost2010PropOp42
 70
     1
102
RTVSPost2010Prop43
 90
        3
102
RTVSPost2010PropOp43
 70
     1
102
RTVSPost2010Prop44ColorIndex
 90
        5
102
RTVSPost2010Prop44ColorRGB
 90
      255
102
RTVSPost2010PropOp44
 70
     1
102
RTVSPost2010Prop45
280
     0
102
RTVSPost2010PropOp45
 70
     1
102
RTVSPost2010Prop46
 90
       50
102
RTVSPost2010PropOp46
 70
     1
102
RTVSPost2010Prop47
 90
       50
102
RTVSPost2010PropOp47
 70
     1
102
RTVSPost2010Prop48
 90
       50
102
RTVSPost2010PropOp48
 70
     1
102
RTVSPost2010Prop49
280
     0
102
RTVSPost2010PropOp49
 70
     1
102
RTVSPost2010Prop50
 90
       50
102
RTVSPost2010PropOp50
 70
     1
102
RTVSPost2010Prop51ColorIndex
 90
      256
102
RTVSPost2010Prop51ColorRGB
 90
-16777216
102
RTVSPost2010PropOp51
 70
     0
102
RTVSPost2010Prop52
140
1.0
102
RTVSPost2010PropOp52
 70
     0
102
RTVSPost2010Prop53
 90
        2
102
RTVSPost2010PropOp53
 70
     1
102
RTVSPost2010Prop54
  1
strokes_ogs.tif
102
RTVSPost2010PropOp54
 70
     1
102
RTVSPost2010Prop55
280
     0
102
RTVSPost2010PropOp55
 70
     1
102
RTVSPost2010Prop56
140
1.0
102
RTVSPost2010PropOp56
 70
     1
102
RTVSPost2010Prop57
140
1.0
102
RTVSPost2010PropOp57
 70
     1
  0
XRECORD
  5
34C
102
{ACAD_REACTORS
330
34B
102
}
330
34B
100
AcDbXrecord
280
     1
102
RTVSPropertyOp0
 70
     1
102
RTVSPropertyOp1
 70
     1
102
RTVSPropertyOp2
 70
     1
102
RTVSPropertyOp3
 70
     1
102
RTVSPropertyOp4
 70
     1
102
RTVSPropertyOp5
 70
     1
102
RTVSPropertyOp6
 70
     1
102
RTVSPropertyOp7
 70
     1
102
RTVSPropertyOp8
 70
     1
102
RTVSPropertyOp9
 70
     1
102
RTVSPropertyOp10
 70
     1
102
RTVSPropertyOp11
 70
     1
102
RTVSPropertyOp12
 70
     1
102
RTVSPropertyOp13
 70
     1
102
RTVSPropertyOp14
 70
     1
102
RTVSPropertyOp15
 70
     1
102
RTVSPropertyOp16
 70
     1
102
RTVSPropertyOp17
 70
     1
102
RTVSPropertyOp18
 70
     1
102
RTVSPropertyOp19
 70
     1
102
RTVSPropertyOp20
 70
     1
102
RTVSPropertyOp21
 70
     1
102
RTVSPropertyOp22
 70
     1
102
RTVSPropertyOp23
 70
     1
102
RTVSPropertyOp24
 70
     1
102
RTVSPropertyOp25
 70
     1
102
RTVSPropertyOp26
 70
     1
102
RTVSPropertyOp27
 70
     1
102
RTVSPropertyOp28
 70
     1
102
RTVSPropertyOp29
 70
     1
102
RTVSPropertyOp30
 70
     1
102
RTVSPropertyOp31
 70
     1
102
RTVSPropertyOp32
 70
     1
102
RTVSPropertyOp33
 70
     1
102
RTVSPropertyOp34
 70
     1
102
RTVSPropertyOp35
 70
     1
102
RTVSPropertyOp36
 70
     1
102
RTVSPropertyOp37
 70
     1
102
RTVSPropertyOp38
 70
     1
102
RTVSPropertyOp39
 70
     1
102
RTVSPropertyOp40
 70
     1
102
RTVSPropertyOp41
 70
     1
102
RTVSPropertyOp42
 70
     1
102
RTVSPropertyOp43
 70
     1
102
RTVSPropertyOp44
 70
     1
102
RTVSPropertyOp45
 70
     1
102
RTVSPropertyOp46
 70
     1
102
RTVSPropertyOp47
 70
     1
102
RTVSPropertyOp48
 70
     1
102
RTVSPropertyOp49
 70
     1
102
RTVSPropertyOp50
 70
     1
102
RTVSPropertyOp51
 70
     0
102
RTVSPropertyOp52
 70
     0
102
RTVSPropertyOp53
 70
     1
102
RTVSPropertyOp54
 70
     1
102
RTVSPropertyOp55
 70
     1
102
RTVSPropertyOp56
 70
     1
102
RTVSPropertyOp57
 70
     1
102
RTVSPost2010Prop28
280
     0
102
RTVSPost2010PropOp28
 70
     1
102
RTVSPost2010Prop29
280
     1
102
RTVSPost2010PropOp29
 70
     1
102
RTVSPost2010Prop30
280
     1
102
RTVSPost2010PropOp30
 70
     1
102
RTVSPost2010Prop31
280
     0
102
RTVSPost2010PropOp31
 70
     1
102
RTVSPost2010Prop32
280
     0
102
RTVSPost2010PropOp32
 70
     1
102
RTVSPost2010Prop33
280
     0
102
RTVSPost2010PropOp33
 70
     1
102
RTVSPost2010Prop34
280
     0
102
RTVSPost2010PropOp34
 70
     1
102
RTVSPost2010Prop35
280
     0
102
RTVSPost2010PropOp35
 70
     1
102
RTVSPost2010Prop36
280
     0
102
RTVSPost2010PropOp36
 70
     1
102
RTVSPost2010Prop37
 90
       50
102
RTVSPost2010PropOp37
 70
     1
102
RTVSPost2010Prop38
140
0.0
102
RTVSPost2010PropOp38
 70
     1
102
RTVSPost2010Prop39
140
1.0
102
RTVSPost2010PropOp39
 70
     1
102
RTVSPost2010Prop40
 90
        0
102
RTVSPost2010PropOp40
 70
     1
102
RTVSPost2010Prop41ColorIndex
 90
       18
102
RTVSPost2010Prop41ColorRGB
 90
        0
102
RTVSPost2010PropOp41
 70
     1
102
RTVSPost2010Prop42
 90
       50
102
RTVSPost2010PropOp42
 70
     1
102
RTVSPost2010Prop43
 90
        3
102
RTVSPost2010PropOp43
 70
     1
102
RTVSPost2010Prop44ColorIndex
 90
        5
102
RTVSPost2010Prop44ColorRGB
 90
      255
102
RTVSPost2010PropOp44
 70
     1
102
RTVSPost2010Prop45
280
     0
102
RTVSPost2010PropOp45
 70
     1
102
RTVSPost2010Prop46
 90
       50
102
RTVSPost2010PropOp46
 70
     1
102
RTVSPost2010Prop47
 90
       50
102
RTVSPost2010PropOp47
 70
     1
102
RTVSPost2010Prop48
 90
       50
102
RTVSPost2010PropOp48
 70
     1
102
RTVSPost2010Prop49
280
     0
102
RTVSPost2010PropOp49
 70
     1
102
RTVSPost2010Prop50
 90
       50
102
RTVSPost2010PropOp50
 70
     1
102
RTVSPost2010Prop51ColorIndex
 90
      256
102
RTVSPost2010Prop51ColorRGB
 90
-16777216
102
RTVSPost2010PropOp51
 70
     0
102
RTVSPost2010Prop52
140
1.0
102
RTVSPost2010PropOp52
 70
     0
102
RTVSPost2010Prop53
 90
        2
102
RTVSPost2010PropOp53
 70
     1
102
RTVSPost2010Prop54
  1
strokes_ogs.tif
102
RTVSPost2010PropOp54
 70
     1
102
RTVSPost2010Prop55
280
     0
102
RTVSPost2010PropOp55
 70
     1
102
RTVSPost2010Prop56
140
1.0
102
RTVSPost2010PropOp56
 70
     1
102
RTVSPost2010Prop57
140
1.0
102
RTVSPost2010PropOp57
 70
     1
  0
XRECORD
  5
354
102
{ACAD_REACTORS
330
353
102
}
330
353
100
AcDbXrecord
280
     1
102
RTVSPropertyOp0
 70
     1
102
RTVSPropertyOp1
 70
     1
102
RTVSPropertyOp2
 70
     1
102
RTVSPropertyOp3
 70
     1
102
RTVSPropertyOp4
 70
     1
102
RTVSPropertyOp5
 70
     1
102
RTVSPropertyOp6
 70
     1
102
RTVSPropertyOp7
 70
     1
102
RTVSPropertyOp8
 70
     1
102
RTVSPropertyOp9
 70
     1
102
RTVSPropertyOp10
 70
     1
102
RTVSPropertyOp11
 70
     1
102
RTVSPropertyOp12
 70
     1
102
RTVSPropertyOp13
 70
     1
102
RTVSPropertyOp14
 70
     1
102
RTVSPropertyOp15
 70
     1
102
RTVSPropertyOp16
 70
     1
102
RTVSPropertyOp17
 70
     1
102
RTVSPropertyOp18
 70
     1
102
RTVSPropertyOp19
 70
     1
102
RTVSPropertyOp20
 70
     1
102
RTVSPropertyOp21
 70
     1
102
RTVSPropertyOp22
 70
     1
102
RTVSPropertyOp23
 70
     1
102
RTVSPropertyOp24
 70
     1
102
RTVSPropertyOp25
 70
     1
102
RTVSPropertyOp26
 70
     1
102
RTVSPropertyOp27
 70
     1
102
RTVSPropertyOp28
 70
     1
102
RTVSPropertyOp29
 70
     1
102
RTVSPropertyOp30
 70
     1
102
RTVSPropertyOp31
 70
     1
102
RTVSPropertyOp32
 70
     1
102
RTVSPropertyOp33
 70
     1
102
RTVSPropertyOp34
 70
     1
102
RTVSPropertyOp35
 70
     1
102
RTVSPropertyOp36
 70
     1
102
RTVSPropertyOp37
 70
     1
102
RTVSPropertyOp38
 70
     1
102
RTVSPropertyOp39
 70
     1
102
RTVSPropertyOp40
 70
     1
102
RTVSPropertyOp41
 70
     1
102
RTVSPropertyOp42
 70
     1
102
RTVSPropertyOp43
 70
     1
102
RTVSPropertyOp44
 70
     1
102
RTVSPropertyOp45
 70
     1
102
RTVSPropertyOp46
 70
     1
102
RTVSPropertyOp47
 70
     1
102
RTVSPropertyOp48
 70
     1
102
RTVSPropertyOp49
 70
     1
102
RTVSPropertyOp50
 70
     1
102
RTVSPropertyOp51
 70
     0
102
RTVSPropertyOp52
 70
     0
102
RTVSPropertyOp53
 70
     1
102
RTVSPropertyOp54
 70
     1
102
RTVSPropertyOp55
 70
     1
102
RTVSPropertyOp56
 70
     1
102
RTVSPropertyOp57
 70
     1
102
RTVSPost2010Prop28
280
     0
102
RTVSPost2010PropOp28
 70
     1
102
RTVSPost2010Prop29
280
     1
102
RTVSPost2010PropOp29
 70
     1
102
RTVSPost2010Prop30
280
     1
102
RTVSPost2010PropOp30
 70
     1
102
RTVSPost2010Prop31
280
     0
102
RTVSPost2010PropOp31
 70
     1
102
RTVSPost2010Prop32
280
     0
102
RTVSPost2010PropOp32
 70
     1
102
RTVSPost2010Prop33
280
     0
102
RTVSPost2010PropOp33
 70
     1
102
RTVSPost2010Prop34
280
     0
102
RTVSPost2010PropOp34
 70
     1
102
RTVSPost2010Prop35
280
     0
102
RTVSPost2010PropOp35
 70
     1
102
RTVSPost2010Prop36
280
     0
102
RTVSPost2010PropOp36
 70
     1
102
RTVSPost2010Prop37
 90
       50
102
RTVSPost2010PropOp37
 70
     1
102
RTVSPost2010Prop38
140
0.0
102
RTVSPost2010PropOp38
 70
     1
102
RTVSPost2010Prop39
140
1.0
102
RTVSPost2010PropOp39
 70
     1
102
RTVSPost2010Prop40
 90
        0
102
RTVSPost2010PropOp40
 70
     1
102
RTVSPost2010Prop41ColorIndex
 90
       18
102
RTVSPost2010Prop41ColorRGB
 90
        0
102
RTVSPost2010PropOp41
 70
     1
102
RTVSPost2010Prop42
 90
       50
102
RTVSPost2010PropOp42
 70
     1
102
RTVSPost2010Prop43
 90
        3
102
RTVSPost2010PropOp43
 70
     1
102
RTVSPost2010Prop44ColorIndex
 90
        5
102
RTVSPost2010Prop44ColorRGB
 90
      255
102
RTVSPost2010PropOp44
 70
     1
102
RTVSPost2010Prop45
280
     0
102
RTVSPost2010PropOp45
 70
     1
102
RTVSPost2010Prop46
 90
       50
102
RTVSPost2010PropOp46
 70
     1
102
RTVSPost2010Prop47
 90
       50
102
RTVSPost2010PropOp47
 70
     1
102
RTVSPost2010Prop48
 90
       50
102
RTVSPost2010PropOp48
 70
     1
102
RTVSPost2010Prop49
280
     0
102
RTVSPost2010PropOp49
 70
     1
102
RTVSPost2010Prop50
 90
       50
102
RTVSPost2010PropOp50
 70
     1
102
RTVSPost2010Prop51ColorIndex
 90
      256
102
RTVSPost2010Prop51ColorRGB
 90
-16777216
102
RTVSPost2010PropOp51
 70
     0
102
RTVSPost2010Prop52
140
1.0
102
RTVSPost2010PropOp52
 70
     0
102
RTVSPost2010Prop53
 90
        2
102
RTVSPost2010PropOp53
 70
     1
102
RTVSPost2010Prop54
  1
strokes_ogs.tif
102
RTVSPost2010PropOp54
 70
     1
102
RTVSPost2010Prop55
280
     0
102
RTVSPost2010PropOp55
 70
     1
102
RTVSPost2010Prop56
140
1.0
102
RTVSPost2010PropOp56
 70
     1
102
RTVSPost2010Prop57
140
1.0
102
RTVSPost2010PropOp57
 70
     1
  0
XRECORD
  5
35C
102
{ACAD_REACTORS
330
35B
102
}
330
35B
100
AcDbXrecord
280
     1
102
RTVSPropertyOp0
 70
     1
102
RTVSPropertyOp1
 70
     1
102
RTVSPropertyOp2
 70
     1
102
RTVSPropertyOp3
 70
     1
102
RTVSPropertyOp4
 70
     1
102
RTVSPropertyOp5
 70
     1
102
RTVSPropertyOp6
 70
     1
102
RTVSPropertyOp7
 70
     1
102
RTVSPropertyOp8
 70
     1
102
RTVSPropertyOp9
 70
     1
102
RTVSPropertyOp10
 70
     1
102
RTVSPropertyOp11
 70
     1
102
RTVSPropertyOp12
 70
     1
102
RTVSPropertyOp13
 70
     1
102
RTVSPropertyOp14
 70
     1
102
RTVSPropertyOp15
 70
     1
102
RTVSPropertyOp16
 70
     1
102
RTVSPropertyOp17
 70
     1
102
RTVSPropertyOp18
 70
     1
102
RTVSPropertyOp19
 70
     1
102
RTVSPropertyOp20
 70
     1
102
RTVSPropertyOp21
 70
     1
102
RTVSPropertyOp22
 70
     1
102
RTVSPropertyOp23
 70
     1
102
RTVSPropertyOp24
 70
     1
102
RTVSPropertyOp25
 70
     1
102
RTVSPropertyOp26
 70
     1
102
RTVSPropertyOp27
 70
     1
102
RTVSPropertyOp28
 70
     1
102
RTVSPropertyOp29
 70
     1
102
RTVSPropertyOp30
 70
     1
102
RTVSPropertyOp31
 70
     1
102
RTVSPropertyOp32
 70
     1
102
RTVSPropertyOp33
 70
     1
102
RTVSPropertyOp34
 70
     1
102
RTVSPropertyOp35
 70
     1
102
RTVSPropertyOp36
 70
     1
102
RTVSPropertyOp37
 70
     1
102
RTVSPropertyOp38
 70
     1
102
RTVSPropertyOp39
 70
     1
102
RTVSPropertyOp40
 70
     1
102
RTVSPropertyOp41
 70
     1
102
RTVSPropertyOp42
 70
     1
102
RTVSPropertyOp43
 70
     1
102
RTVSPropertyOp44
 70
     1
102
RTVSPropertyOp45
 70
     1
102
RTVSPropertyOp46
 70
     1
102
RTVSPropertyOp47
 70
     1
102
RTVSPropertyOp48
 70
     1
102
RTVSPropertyOp49
 70
     1
102
RTVSPropertyOp50
 70
     1
102
RTVSPropertyOp51
 70
     0
102
RTVSPropertyOp52
 70
     0
102
RTVSPropertyOp53
 70
     1
102
RTVSPropertyOp54
 70
     1
102
RTVSPropertyOp55
 70
     1
102
RTVSPropertyOp56
 70
     1
102
RTVSPropertyOp57
 70
     1
102
RTVSPost2010Prop28
280
     0
102
RTVSPost2010PropOp28
 70
     1
102
RTVSPost2010Prop29
280
     1
102
RTVSPost2010PropOp29
 70
     1
102
RTVSPost2010Prop30
280
     1
102
RTVSPost2010PropOp30
 70
     1
102
RTVSPost2010Prop31
280
     0
102
RTVSPost2010PropOp31
 70
     1
102
RTVSPost2010Prop32
280
     0
102
RTVSPost2010PropOp32
 70
     1
102
RTVSPost2010Prop33
280
     0
102
RTVSPost2010PropOp33
 70
     1
102
RTVSPost2010Prop34
280
     0
102
RTVSPost2010PropOp34
 70
     1
102
RTVSPost2010Prop35
280
     0
102
RTVSPost2010PropOp35
 70
     1
102
RTVSPost2010Prop36
280
     0
102
RTVSPost2010PropOp36
 70
     1
102
RTVSPost2010Prop37
 90
       50
102
RTVSPost2010PropOp37
 70
     1
102
RTVSPost2010Prop38
140
0.0
102
RTVSPost2010PropOp38
 70
     1
102
RTVSPost2010Prop39
140
1.0
102
RTVSPost2010PropOp39
 70
     1
102
RTVSPost2010Prop40
 90
        0
102
RTVSPost2010PropOp40
 70
     1
102
RTVSPost2010Prop41ColorIndex
 90
       18
102
RTVSPost2010Prop41ColorRGB
 90
        0
102
RTVSPost2010PropOp41
 70
     1
102
RTVSPost2010Prop42
 90
       50
102
RTVSPost2010PropOp42
 70
     1
102
RTVSPost2010Prop43
 90
        3
102
RTVSPost2010PropOp43
 70
     1
102
RTVSPost2010Prop44ColorIndex
 90
        5
102
RTVSPost2010Prop44ColorRGB
 90
      255
102
RTVSPost2010PropOp44
 70
     1
102
RTVSPost2010Prop45
280
     0
102
RTVSPost2010PropOp45
 70
     1
102
RTVSPost2010Prop46
 90
       50
102
RTVSPost2010PropOp46
 70
     1
102
RTVSPost2010Prop47
 90
       50
102
RTVSPost2010PropOp47
 70
     1
102
RTVSPost2010Prop48
 90
       50
102
RTVSPost2010PropOp48
 70
     1
102
RTVSPost2010Prop49
280
     0
102
RTVSPost2010PropOp49
 70
     1
102
RTVSPost2010Prop50
 90
       50
102
RTVSPost2010PropOp50
 70
     1
102
RTVSPost2010Prop51ColorIndex
 90
      256
102
RTVSPost2010Prop51ColorRGB
 90
-16777216
102
RTVSPost2010PropOp51
 70
     0
102
RTVSPost2010Prop52
140
1.0
102
RTVSPost2010PropOp52
 70
     0
102
RTVSPost2010Prop53
 90
        2
102
RTVSPost2010PropOp53
 70
     1
102
RTVSPost2010Prop54
  1
strokes_ogs.tif
102
RTVSPost2010PropOp54
 70
     1
102
RTVSPost2010Prop55
280
     0
102
RTVSPost2010PropOp55
 70
     1
102
RTVSPost2010Prop56
140
1.0
102
RTVSPost2010PropOp56
 70
     1
102
RTVSPost2010Prop57
140
1.0
102
RTVSPost2010PropOp57
 70
     1
  0
XRECORD
  5
350
102
{ACAD_REACTORS
330
34F
102
}
330
34F
100
AcDbXrecord
280
     1
102
RTVSPropertyOp0
 70
     1
102
RTVSPropertyOp1
 70
     1
102
RTVSPropertyOp2
 70
     1
102
RTVSPropertyOp3
 70
     1
102
RTVSPropertyOp4
 70
     1
102
RTVSPropertyOp5
 70
     1
102
RTVSPropertyOp6
 70
     1
102
RTVSPropertyOp7
 70
     1
102
RTVSPropertyOp8
 70
     1
102
RTVSPropertyOp9
 70
     1
102
RTVSPropertyOp10
 70
     1
102
RTVSPropertyOp11
 70
     1
102
RTVSPropertyOp12
 70
     1
102
RTVSPropertyOp13
 70
     1
102
RTVSPropertyOp14
 70
     1
102
RTVSPropertyOp15
 70
     1
102
RTVSPropertyOp16
 70
     1
102
RTVSPropertyOp17
 70
     1
102
RTVSPropertyOp18
 70
     1
102
RTVSPropertyOp19
 70
     1
102
RTVSPropertyOp20
 70
     1
102
RTVSPropertyOp21
 70
     1
102
RTVSPropertyOp22
 70
     1
102
RTVSPropertyOp23
 70
     1
102
RTVSPropertyOp24
 70
     1
102
RTVSPropertyOp25
 70
     1
102
RTVSPropertyOp26
 70
     1
102
RTVSPropertyOp27
 70
     1
102
RTVSPropertyOp28
 70
     1
102
RTVSPropertyOp29
 70
     1
102
RTVSPropertyOp30
 70
     1
102
RTVSPropertyOp31
 70
     1
102
RTVSPropertyOp32
 70
     1
102
RTVSPropertyOp33
 70
     1
102
RTVSPropertyOp34
 70
     1
102
RTVSPropertyOp35
 70
     1
102
RTVSPropertyOp36
 70
     1
102
RTVSPropertyOp37
 70
     1
102
RTVSPropertyOp38
 70
     1
102
RTVSPropertyOp39
 70
     1
102
RTVSPropertyOp40
 70
     1
102
RTVSPropertyOp41
 70
     1
102
RTVSPropertyOp42
 70
     1
102
RTVSPropertyOp43
 70
     1
102
RTVSPropertyOp44
 70
     1
102
RTVSPropertyOp45
 70
     1
102
RTVSPropertyOp46
 70
     1
102
RTVSPropertyOp47
 70
     1
102
RTVSPropertyOp48
 70
     1
102
RTVSPropertyOp49
 70
     1
102
RTVSPropertyOp50
 70
     1
102
RTVSPropertyOp51
 70
     0
102
RTVSPropertyOp52
 70
     0
102
RTVSPropertyOp53
 70
     1
102
RTVSPropertyOp54
 70
     1
102
RTVSPropertyOp55
 70
     1
102
RTVSPropertyOp56
 70
     1
102
RTVSPropertyOp57
 70
     1
102
RTVSPost2010Prop28
280
     0
102
RTVSPost2010PropOp28
 70
     1
102
RTVSPost2010Prop29
280
     1
102
RTVSPost2010PropOp29
 70
     1
102
RTVSPost2010Prop30
280
     1
102
RTVSPost2010PropOp30
 70
     1
102
RTVSPost2010Prop31
280
     0
102
RTVSPost2010PropOp31
 70
     1
102
RTVSPost2010Prop32
280
     0
102
RTVSPost2010PropOp32
 70
     1
102
RTVSPost2010Prop33
280
     0
102
RTVSPost2010PropOp33
 70
     1
102
RTVSPost2010Prop34
280
     0
102
RTVSPost2010PropOp34
 70
     1
102
RTVSPost2010Prop35
280
     0
102
RTVSPost2010PropOp35
 70
     1
102
RTVSPost2010Prop36
280
     0
102
RTVSPost2010PropOp36
 70
     1
102
RTVSPost2010Prop37
 90
       50
102
RTVSPost2010PropOp37
 70
     1
102
RTVSPost2010Prop38
140
0.0
102
RTVSPost2010PropOp38
 70
     1
102
RTVSPost2010Prop39
140
1.0
102
RTVSPost2010PropOp39
 70
     1
102
RTVSPost2010Prop40
 90
        0
102
RTVSPost2010PropOp40
 70
     1
102
RTVSPost2010Prop41ColorIndex
 90
       18
102
RTVSPost2010Prop41ColorRGB
 90
        0
102
RTVSPost2010PropOp41
 70
     1
102
RTVSPost2010Prop42
 90
       50
102
RTVSPost2010PropOp42
 70
     1
102
RTVSPost2010Prop43
 90
        3
102
RTVSPost2010PropOp43
 70
     1
102
RTVSPost2010Prop44ColorIndex
 90
        5
102
RTVSPost2010Prop44ColorRGB
 90
      255
102
RTVSPost2010PropOp44
 70
     1
102
RTVSPost2010Prop45
280
     0
102
RTVSPost2010PropOp45
 70
     1
102
RTVSPost2010Prop46
 90
       50
102
RTVSPost2010PropOp46
 70
     1
102
RTVSPost2010Prop47
 90
       50
102
RTVSPost2010PropOp47
 70
     1
102
RTVSPost2010Prop48
 90
       50
102
RTVSPost2010PropOp48
 70
     1
102
RTVSPost2010Prop49
280
     0
102
RTVSPost2010PropOp49
 70
     1
102
RTVSPost2010Prop50
 90
       50
102
RTVSPost2010PropOp50
 70
     1
102
RTVSPost2010Prop51ColorIndex
 90
      256
102
RTVSPost2010Prop51ColorRGB
 90
-16777216
102
RTVSPost2010PropOp51
 70
     0
102
RTVSPost2010Prop52
140
1.0
102
RTVSPost2010PropOp52
 70
     0
102
RTVSPost2010Prop53
 90
        2
102
RTVSPost2010PropOp53
 70
     1
102
RTVSPost2010Prop54
  1
strokes_ogs.tif
102
RTVSPost2010PropOp54
 70
     1
102
RTVSPost2010Prop55
280
     0
102
RTVSPost2010PropOp55
 70
     1
102
RTVSPost2010Prop56
140
1.0
102
RTVSPost2010PropOp56
 70
     1
102
RTVSPost2010Prop57
140
1.0
102
RTVSPost2010PropOp57
 70
     1
  0
XRECORD
  5
352
102
{ACAD_REACTORS
330
351
102
}
330
351
100
AcDbXrecord
280
     1
102
RTVSPropertyOp0
 70
     1
102
RTVSPropertyOp1
 70
     1
102
RTVSPropertyOp2
 70
     1
102
RTVSPropertyOp3
 70
     1
102
RTVSPropertyOp4
 70
     1
102
RTVSPropertyOp5
 70
     1
102
RTVSPropertyOp6
 70
     1
102
RTVSPropertyOp7
 70
     1
102
RTVSPropertyOp8
 70
     1
102
RTVSPropertyOp9
 70
     1
102
RTVSPropertyOp10
 70
     1
102
RTVSPropertyOp11
 70
     1
102
RTVSPropertyOp12
 70
     1
102
RTVSPropertyOp13
 70
     1
102
RTVSPropertyOp14
 70
     1
102
RTVSPropertyOp15
 70
     1
102
RTVSPropertyOp16
 70
     1
102
RTVSPropertyOp17
 70
     1
102
RTVSPropertyOp18
 70
     1
102
RTVSPropertyOp19
 70
     1
102
RTVSPropertyOp20
 70
     1
102
RTVSPropertyOp21
 70
     1
102
RTVSPropertyOp22
 70
     1
102
RTVSPropertyOp23
 70
     1
102
RTVSPropertyOp24
 70
     1
102
RTVSPropertyOp25
 70
     1
102
RTVSPropertyOp26
 70
     1
102
RTVSPropertyOp27
 70
     1
102
RTVSPropertyOp28
 70
     1
102
RTVSPropertyOp29
 70
     1
102
RTVSPropertyOp30
 70
     1
102
RTVSPropertyOp31
 70
     1
102
RTVSPropertyOp32
 70
     1
102
RTVSPropertyOp33
 70
     1
102
RTVSPropertyOp34
 70
     1
102
RTVSPropertyOp35
 70
     1
102
RTVSPropertyOp36
 70
     1
102
RTVSPropertyOp37
 70
     1
102
RTVSPropertyOp38
 70
     1
102
RTVSPropertyOp39
 70
     1
102
RTVSPropertyOp40
 70
     1
102
RTVSPropertyOp41
 70
     1
102
RTVSPropertyOp42
 70
     1
102
RTVSPropertyOp43
 70
     1
102
RTVSPropertyOp44
 70
     1
102
RTVSPropertyOp45
 70
     1
102
RTVSPropertyOp46
 70
     1
102
RTVSPropertyOp47
 70
     1
102
RTVSPropertyOp48
 70
     1
102
RTVSPropertyOp49
 70
     1
102
RTVSPropertyOp50
 70
     1
102
RTVSPropertyOp51
 70
     0
102
RTVSPropertyOp52
 70
     0
102
RTVSPropertyOp53
 70
     1
102
RTVSPropertyOp54
 70
     1
102
RTVSPropertyOp55
 70
     1
102
RTVSPropertyOp56
 70
     1
102
RTVSPropertyOp57
 70
     1
102
RTVSPost2010Prop28
280
     0
102
RTVSPost2010PropOp28
 70
     1
102
RTVSPost2010Prop29
280
     1
102
RTVSPost2010PropOp29
 70
     1
102
RTVSPost2010Prop30
280
     1
102
RTVSPost2010PropOp30
 70
     1
102
RTVSPost2010Prop31
280
     0
102
RTVSPost2010PropOp31
 70
     1
102
RTVSPost2010Prop32
280
     0
102
RTVSPost2010PropOp32
 70
     1
102
RTVSPost2010Prop33
280
     0
102
RTVSPost2010PropOp33
 70
     1
102
RTVSPost2010Prop34
280
     0
102
RTVSPost2010PropOp34
 70
     1
102
RTVSPost2010Prop35
280
     0
102
RTVSPost2010PropOp35
 70
     1
102
RTVSPost2010Prop36
280
     0
102
RTVSPost2010PropOp36
 70
     1
102
RTVSPost2010Prop37
 90
       50
102
RTVSPost2010PropOp37
 70
     1
102
RTVSPost2010Prop38
140
0.0
102
RTVSPost2010PropOp38
 70
     1
102
RTVSPost2010Prop39
140
1.0
102
RTVSPost2010PropOp39
 70
     1
102
RTVSPost2010Prop40
 90
        0
102
RTVSPost2010PropOp40
 70
     1
102
RTVSPost2010Prop41ColorIndex
 90
       18
102
RTVSPost2010Prop41ColorRGB
 90
        0
102
RTVSPost2010PropOp41
 70
     1
102
RTVSPost2010Prop42
 90
       50
102
RTVSPost2010PropOp42
 70
     1
102
RTVSPost2010Prop43
 90
        3
102
RTVSPost2010PropOp43
 70
     1
102
RTVSPost2010Prop44ColorIndex
 90
        5
102
RTVSPost2010Prop44ColorRGB
 90
      255
102
RTVSPost2010PropOp44
 70
     1
102
RTVSPost2010Prop45
280
     0
102
RTVSPost2010PropOp45
 70
     1
102
RTVSPost2010Prop46
 90
       50
102
RTVSPost2010PropOp46
 70
     1
102
RTVSPost2010Prop47
 90
       50
102
RTVSPost2010PropOp47
 70
     1
102
RTVSPost2010Prop48
 90
       50
102
RTVSPost2010PropOp48
 70
     1
102
RTVSPost2010Prop49
280
     0
102
RTVSPost2010PropOp49
 70
     1
102
RTVSPost2010Prop50
 90
       50
102
RTVSPost2010PropOp50
 70
     1
102
RTVSPost2010Prop51ColorIndex
 90
      256
102
RTVSPost2010Prop51ColorRGB
 90
-16777216
102
RTVSPost2010PropOp51
 70
     0
102
RTVSPost2010Prop52
140
1.0
102
RTVSPost2010PropOp52
 70
     0
102
RTVSPost2010Prop53
 90
        2
102
RTVSPost2010PropOp53
 70
     1
102
RTVSPost2010Prop54
  1
strokes_ogs.tif
102
RTVSPost2010PropOp54
 70
     1
102
RTVSPost2010Prop55
280
     0
102
RTVSPost2010PropOp55
 70
     1
102
RTVSPost2010Prop56
140
1.0
102
RTVSPost2010PropOp56
 70
     1
102
RTVSPost2010Prop57
140
1.0
102
RTVSPost2010PropOp57
 70
     1
  0
XRECORD
  5
362
102
{ACAD_REACTORS
330
361
102
}
330
361
100
AcDbXrecord
280
     1
102
RTVSPropertyOp0
 70
     0
102
RTVSPropertyOp1
 70
     0
102
RTVSPropertyOp2
 70
     0
102
RTVSPropertyOp3
 70
     0
102
RTVSPropertyOp4
 70
     0
102
RTVSPropertyOp5
 70
     0
102
RTVSPropertyOp6
 70
     0
102
RTVSPropertyOp7
 70
     0
102
RTVSPropertyOp8
 70
     0
102
RTVSPropertyOp9
 70
     0
102
RTVSPropertyOp10
 70
     0
102
RTVSPropertyOp11
 70
     0
102
RTVSPropertyOp12
 70
     0
102
RTVSPropertyOp13
 70
     0
102
RTVSPropertyOp14
 70
     2
102
RTVSPropertyOp15
 70
     0
102
RTVSPropertyOp16
 70
     0
102
RTVSPropertyOp17
 70
     0
102
RTVSPropertyOp18
 70
     0
102
RTVSPropertyOp19
 70
     0
102
RTVSPropertyOp20
 70
     0
102
RTVSPropertyOp21
 70
     0
102
RTVSPropertyOp22
 70
     0
102
RTVSPropertyOp23
 70
     0
102
RTVSPropertyOp24
 70
     0
102
RTVSPropertyOp25
 70
     0
102
RTVSPropertyOp26
 70
     0
102
RTVSPropertyOp27
 70
     0
102
RTVSPropertyOp28
 70
     0
102
RTVSPropertyOp29
 70
     0
102
RTVSPropertyOp30
 70
     0
102
RTVSPropertyOp31
 70
     0
102
RTVSPropertyOp32
 70
     0
102
RTVSPropertyOp33
 70
     0
102
RTVSPropertyOp34
 70
     0
102
RTVSPropertyOp35
 70
     0
102
RTVSPropertyOp36
 70
     0
102
RTVSPropertyOp37
 70
     0
102
RTVSPropertyOp38
 70
     0
102
RTVSPropertyOp39
 70
     0
102
RTVSPropertyOp40
 70
     0
102
RTVSPropertyOp41
 70
     0
102
RTVSPropertyOp42
 70
     0
102
RTVSPropertyOp43
 70
     0
102
RTVSPropertyOp44
 70
     0
102
RTVSPropertyOp45
 70
     0
102
RTVSPropertyOp46
 70
     0
102
RTVSPropertyOp47
 70
     0
102
RTVSPropertyOp48
 70
     0
102
RTVSPropertyOp49
 70
     0
102
RTVSPropertyOp50
 70
     0
102
RTVSPropertyOp51
 70
     0
102
RTVSPropertyOp52
 70
     0
102
RTVSPropertyOp53
 70
     0
102
RTVSPropertyOp54
 70
     0
102
RTVSPropertyOp55
 70
     0
102
RTVSPropertyOp56
 70
     0
102
RTVSPropertyOp57
 70
     0
102
RTVSPost2010Prop28
280
     0
102
RTVSPost2010PropOp28
 70
     0
102
RTVSPost2010Prop29
280
     1
102
RTVSPost2010PropOp29
 70
     0
102
RTVSPost2010Prop30
280
     1
102
RTVSPost2010PropOp30
 70
     0
102
RTVSPost2010Prop31
280
     0
102
RTVSPost2010PropOp31
 70
     0
102
RTVSPost2010Prop32
280
     0
102
RTVSPost2010PropOp32
 70
     0
102
RTVSPost2010Prop33
280
     0
102
RTVSPost2010PropOp33
 70
     0
102
RTVSPost2010Prop34
280
     0
102
RTVSPost2010PropOp34
 70
     0
102
RTVSPost2010Prop35
280
     0
102
RTVSPost2010PropOp35
 70
     0
102
RTVSPost2010Prop36
280
     0
102
RTVSPost2010PropOp36
 70
     0
102
RTVSPost2010Prop37
 90
       50
102
RTVSPost2010PropOp37
 70
     0
102
RTVSPost2010Prop38
140
0.0
102
RTVSPost2010PropOp38
 70
     0
102
RTVSPost2010Prop39
140
1.0
102
RTVSPost2010PropOp39
 70
     0
102
RTVSPost2010Prop40
 90
        0
102
RTVSPost2010PropOp40
 70
     0
102
RTVSPost2010Prop41ColorIndex
 90
       18
102
RTVSPost2010Prop41ColorRGB
 90
        0
102
RTVSPost2010PropOp41
 70
     0
102
RTVSPost2010Prop42
 90
       50
102
RTVSPost2010PropOp42
 70
     0
102
RTVSPost2010Prop43
 90
        3
102
RTVSPost2010PropOp43
 70
     0
102
RTVSPost2010Prop44ColorIndex
 90
        5
102
RTVSPost2010Prop44ColorRGB
 90
      255
102
RTVSPost2010PropOp44
 70
     0
102
RTVSPost2010Prop45
280
     0
102
RTVSPost2010PropOp45
 70
     0
102
RTVSPost2010Prop46
 90
       50
102
RTVSPost2010PropOp46
 70
     0
102
RTVSPost2010Prop47
 90
       50
102
RTVSPost2010PropOp47
 70
     0
102
RTVSPost2010Prop48
 90
       50
102
RTVSPost2010PropOp48
 70
     0
102
RTVSPost2010Prop49
280
     0
102
RTVSPost2010PropOp49
 70
     0
102
RTVSPost2010Prop50
 90
       50
102
RTVSPost2010PropOp50
 70
     0
102
RTVSPost2010Prop51ColorIndex
 90
      256
102
RTVSPost2010Prop51ColorRGB
 90
-16777216
102
RTVSPost2010PropOp51
 70
     0
102
RTVSPost2010Prop52
140
1.0
102
RTVSPost2010PropOp52
 70
     0
102
RTVSPost2010Prop53
 90
        2
102
RTVSPost2010PropOp53
 70
     0
102
RTVSPost2010Prop54
  1
strokes_ogs.tif
102
RTVSPost2010PropOp54
 70
     0
102
RTVSPost2010Prop55
280
     0
102
RTVSPost2010PropOp55
 70
     0
102
RTVSPost2010Prop56
140
1.0
102
RTVSPost2010PropOp56
 70
     0
102
RTVSPost2010Prop57
140
1.0
102
RTVSPost2010PropOp57
 70
     0
  0
XRECORD
  5
35A
102
{ACAD_REACTORS
330
359
102
}
330
359
100
AcDbXrecord
280
     1
102
RTVSPropertyOp0
 70
     1
102
RTVSPropertyOp1
 70
     1
102
RTVSPropertyOp2
 70
     1
102
RTVSPropertyOp3
 70
     1
102
RTVSPropertyOp4
 70
     1
102
RTVSPropertyOp5
 70
     1
102
RTVSPropertyOp6
 70
     1
102
RTVSPropertyOp7
 70
     1
102
RTVSPropertyOp8
 70
     1
102
RTVSPropertyOp9
 70
     1
102
RTVSPropertyOp10
 70
     1
102
RTVSPropertyOp11
 70
     1
102
RTVSPropertyOp12
 70
     1
102
RTVSPropertyOp13
 70
     1
102
RTVSPropertyOp14
 70
     1
102
RTVSPropertyOp15
 70
     1
102
RTVSPropertyOp16
 70
     1
102
RTVSPropertyOp17
 70
     1
102
RTVSPropertyOp18
 70
     1
102
RTVSPropertyOp19
 70
     1
102
RTVSPropertyOp20
 70
     1
102
RTVSPropertyOp21
 70
     1
102
RTVSPropertyOp22
 70
     1
102
RTVSPropertyOp23
 70
     1
102
RTVSPropertyOp24
 70
     1
102
RTVSPropertyOp25
 70
     1
102
RTVSPropertyOp26
 70
     1
102
RTVSPropertyOp27
 70
     1
102
RTVSPropertyOp28
 70
     1
102
RTVSPropertyOp29
 70
     1
102
RTVSPropertyOp30
 70
     1
102
RTVSPropertyOp31
 70
     1
102
RTVSPropertyOp32
 70
     1
102
RTVSPropertyOp33
 70
     1
102
RTVSPropertyOp34
 70
     1
102
RTVSPropertyOp35
 70
     1
102
RTVSPropertyOp36
 70
     1
102
RTVSPropertyOp37
 70
     1
102
RTVSPropertyOp38
 70
     1
102
RTVSPropertyOp39
 70
     1
102
RTVSPropertyOp40
 70
     1
102
RTVSPropertyOp41
 70
     1
102
RTVSPropertyOp42
 70
     1
102
RTVSPropertyOp43
 70
     1
102
RTVSPropertyOp44
 70
     1
102
RTVSPropertyOp45
 70
     1
102
RTVSPropertyOp46
 70
     1
102
RTVSPropertyOp47
 70
     1
102
RTVSPropertyOp48
 70
     1
102
RTVSPropertyOp49
 70
     1
102
RTVSPropertyOp50
 70
     1
102
RTVSPropertyOp51
 70
     0
102
RTVSPropertyOp52
 70
     0
102
RTVSPropertyOp53
 70
     1
102
RTVSPropertyOp54
 70
     1
102
RTVSPropertyOp55
 70
     1
102
RTVSPropertyOp56
 70
     1
102
RTVSPropertyOp57
 70
     1
102
RTVSPost2010Prop28
280
     0
102
RTVSPost2010PropOp28
 70
     1
102
RTVSPost2010Prop29
280
     1
102
RTVSPost2010PropOp29
 70
     1
102
RTVSPost2010Prop30
280
     1
102
RTVSPost2010PropOp30
 70
     1
102
RTVSPost2010Prop31
280
     0
102
RTVSPost2010PropOp31
 70
     1
102
RTVSPost2010Prop32
280
     0
102
RTVSPost2010PropOp32
 70
     1
102
RTVSPost2010Prop33
280
     0
102
RTVSPost2010PropOp33
 70
     1
102
RTVSPost2010Prop34
280
     0
102
RTVSPost2010PropOp34
 70
     1
102
RTVSPost2010Prop35
280
     0
102
RTVSPost2010PropOp35
 70
     1
102
RTVSPost2010Prop36
280
     0
102
RTVSPost2010PropOp36
 70
     1
102
RTVSPost2010Prop37
 90
       50
102
RTVSPost2010PropOp37
 70
     1
102
RTVSPost2010Prop38
140
0.0
102
RTVSPost2010PropOp38
 70
     1
102
RTVSPost2010Prop39
140
1.0
102
RTVSPost2010PropOp39
 70
     1
102
RTVSPost2010Prop40
 90
        0
102
RTVSPost2010PropOp40
 70
     1
102
RTVSPost2010Prop41ColorIndex
 90
       18
102
RTVSPost2010Prop41ColorRGB
 90
        0
102
RTVSPost2010PropOp41
 70
     1
102
RTVSPost2010Prop42
 90
       50
102
RTVSPost2010PropOp42
 70
     1
102
RTVSPost2010Prop43
 90
        3
102
RTVSPost2010PropOp43
 70
     1
102
RTVSPost2010Prop44ColorIndex
 90
        5
102
RTVSPost2010Prop44ColorRGB
 90
      255
102
RTVSPost2010PropOp44
 70
     1
102
RTVSPost2010Prop45
280
     0
102
RTVSPost2010PropOp45
 70
     1
102
RTVSPost2010Prop46
 90
       50
102
RTVSPost2010PropOp46
 70
     1
102
RTVSPost2010Prop47
 90
       50
102
RTVSPost2010PropOp47
 70
     1
102
RTVSPost2010Prop48
 90
       50
102
RTVSPost2010PropOp48
 70
     1
102
RTVSPost2010Prop49
280
     0
102
RTVSPost2010PropOp49
 70
     1
102
RTVSPost2010Prop50
 90
       50
102
RTVSPost2010PropOp50
 70
     1
102
RTVSPost2010Prop51ColorIndex
 90
      256
102
RTVSPost2010Prop51ColorRGB
 90
-16777216
102
RTVSPost2010PropOp51
 70
     0
102
RTVSPost2010Prop52
140
1.0
102
RTVSPost2010PropOp52
 70
     0
102
RTVSPost2010Prop53
 90
        2
102
RTVSPost2010PropOp53
 70
     1
102
RTVSPost2010Prop54
  1
strokes_ogs.tif
102
RTVSPost2010PropOp54
 70
     1
102
RTVSPost2010Prop55
280
     0
102
RTVSPost2010PropOp55
 70
     1
102
RTVSPost2010Prop56
140
1.0
102
RTVSPost2010PropOp56
 70
     1
102
RTVSPost2010Prop57
140
1.0
102
RTVSPost2010PropOp57
 70
     1
  0
XRECORD
  5
33E
102
{ACAD_REACTORS
330
33D
102
}
330
33D
100
AcDbXrecord
280
     1
102
RTVSPropertyOp0
 70
     1
102
RTVSPropertyOp1
 70
     1
102
RTVSPropertyOp2
 70
     1
102
RTVSPropertyOp3
 70
     1
102
RTVSPropertyOp4
 70
     1
102
RTVSPropertyOp5
 70
     1
102
RTVSPropertyOp6
 70
     1
102
RTVSPropertyOp7
 70
     1
102
RTVSPropertyOp8
 70
     1
102
RTVSPropertyOp9
 70
     1
102
RTVSPropertyOp10
 70
     1
102
RTVSPropertyOp11
 70
     1
102
RTVSPropertyOp12
 70
     1
102
RTVSPropertyOp13
 70
     1
102
RTVSPropertyOp14
 70
     1
102
RTVSPropertyOp15
 70
     1
102
RTVSPropertyOp16
 70
     1
102
RTVSPropertyOp17
 70
     1
102
RTVSPropertyOp18
 70
     1
102
RTVSPropertyOp19
 70
     1
102
RTVSPropertyOp20
 70
     1
102
RTVSPropertyOp21
 70
     1
102
RTVSPropertyOp22
 70
     1
102
RTVSPropertyOp23
 70
     1
102
RTVSPropertyOp24
 70
     1
102
RTVSPropertyOp25
 70
     1
102
RTVSPropertyOp26
 70
     1
102
RTVSPropertyOp27
 70
     1
102
RTVSPropertyOp28
 70
     1
102
RTVSPropertyOp29
 70
     1
102
RTVSPropertyOp30
 70
     1
102
RTVSPropertyOp31
 70
     1
102
RTVSPropertyOp32
 70
     1
102
RTVSPropertyOp33
 70
     1
102
RTVSPropertyOp34
 70
     1
102
RTVSPropertyOp35
 70
     1
102
RTVSPropertyOp36
 70
     1
102
RTVSPropertyOp37
 70
     1
102
RTVSPropertyOp38
 70
     1
102
RTVSPropertyOp39
 70
     1
102
RTVSPropertyOp40
 70
     1
102
RTVSPropertyOp41
 70
     1
102
RTVSPropertyOp42
 70
     1
102
RTVSPropertyOp43
 70
     1
102
RTVSPropertyOp44
 70
     1
102
RTVSPropertyOp45
 70
     1
102
RTVSPropertyOp46
 70
     1
102
RTVSPropertyOp47
 70
     1
102
RTVSPropertyOp48
 70
     1
102
RTVSPropertyOp49
 70
     1
102
RTVSPropertyOp50
 70
     1
102
RTVSPropertyOp51
 70
     0
102
RTVSPropertyOp52
 70
     0
102
RTVSPropertyOp53
 70
     1
102
RTVSPropertyOp54
 70
     1
102
RTVSPropertyOp55
 70
     1
102
RTVSPropertyOp56
 70
     1
102
RTVSPropertyOp57
 70
     1
102
RTVSPost2010Prop28
280
     0
102
RTVSPost2010PropOp28
 70
     1
102
RTVSPost2010Prop29
280
     1
102
RTVSPost2010PropOp29
 70
     1
102
RTVSPost2010Prop30
280
     1
102
RTVSPost2010PropOp30
 70
     1
102
RTVSPost2010Prop31
280
     0
102
RTVSPost2010PropOp31
 70
     1
102
RTVSPost2010Prop32
280
     0
102
RTVSPost2010PropOp32
 70
     1
102
RTVSPost2010Prop33
280
     0
102
RTVSPost2010PropOp33
 70
     1
102
RTVSPost2010Prop34
280
     0
102
RTVSPost2010PropOp34
 70
     1
102
RTVSPost2010Prop35
280
     0
102
RTVSPost2010PropOp35
 70
     1
102
RTVSPost2010Prop36
280
     0
102
RTVSPost2010PropOp36
 70
     1
102
RTVSPost2010Prop37
 90
       50
102
RTVSPost2010PropOp37
 70
     1
102
RTVSPost2010Prop38
140
0.0
102
RTVSPost2010PropOp38
 70
     1
102
RTVSPost2010Prop39
140
1.0
102
RTVSPost2010PropOp39
 70
     1
102
RTVSPost2010Prop40
 90
        0
102
RTVSPost2010PropOp40
 70
     1
102
RTVSPost2010Prop41ColorIndex
 90
       18
102
RTVSPost2010Prop41ColorRGB
 90
        0
102
RTVSPost2010PropOp41
 70
     1
102
RTVSPost2010Prop42
 90
       50
102
RTVSPost2010PropOp42
 70
     1
102
RTVSPost2010Prop43
 90
        3
102
RTVSPost2010PropOp43
 70
     1
102
RTVSPost2010Prop44ColorIndex
 90
        5
102
RTVSPost2010Prop44ColorRGB
 90
      255
102
RTVSPost2010PropOp44
 70
     1
102
RTVSPost2010Prop45
280
     0
102
RTVSPost2010PropOp45
 70
     1
102
RTVSPost2010Prop46
 90
       50
102
RTVSPost2010PropOp46
 70
     1
102
RTVSPost2010Prop47
 90
       50
102
RTVSPost2010PropOp47
 70
     1
102
RTVSPost2010Prop48
 90
       50
102
RTVSPost2010PropOp48
 70
     1
102
RTVSPost2010Prop49
280
     0
102
RTVSPost2010PropOp49
 70
     1
102
RTVSPost2010Prop50
 90
       50
102
RTVSPost2010PropOp50
 70
     1
102
RTVSPost2010Prop51ColorIndex
 90
      256
102
RTVSPost2010Prop51ColorRGB
 90
-16777216
102
RTVSPost2010PropOp51
 70
     0
102
RTVSPost2010Prop52
140
1.0
102
RTVSPost2010PropOp52
 70
     0
102
RTVSPost2010Prop53
 90
        2
102
RTVSPost2010PropOp53
 70
     1
102
RTVSPost2010Prop54
  1
strokes_ogs.tif
102
RTVSPost2010PropOp54
 70
     1
102
RTVSPost2010Prop55
280
     0
102
RTVSPost2010PropOp55
 70
     1
102
RTVSPost2010Prop56
140
1.0
102
RTVSPost2010PropOp56
 70
     1
102
RTVSPost2010Prop57
140
1.0
102
RTVSPost2010PropOp57
 70
     1
  0
XRECORD
  5
340
102
{ACAD_REACTORS
330
33F
102
}
330
33F
100
AcDbXrecord
280
     1
102
RTVSPropertyOp0
 70
     1
102
RTVSPropertyOp1
 70
     1
102
RTVSPropertyOp2
 70
     1
102
RTVSPropertyOp3
 70
     1
102
RTVSPropertyOp4
 70
     1
102
RTVSPropertyOp5
 70
     1
102
RTVSPropertyOp6
 70
     1
102
RTVSPropertyOp7
 70
     1
102
RTVSPropertyOp8
 70
     1
102
RTVSPropertyOp9
 70
     1
102
RTVSPropertyOp10
 70
     1
102
RTVSPropertyOp11
 70
     1
102
RTVSPropertyOp12
 70
     1
102
RTVSPropertyOp13
 70
     1
102
RTVSPropertyOp14
 70
     1
102
RTVSPropertyOp15
 70
     1
102
RTVSPropertyOp16
 70
     1
102
RTVSPropertyOp17
 70
     1
102
RTVSPropertyOp18
 70
     1
102
RTVSPropertyOp19
 70
     1
102
RTVSPropertyOp20
 70
     1
102
RTVSPropertyOp21
 70
     1
102
RTVSPropertyOp22
 70
     1
102
RTVSPropertyOp23
 70
     1
102
RTVSPropertyOp24
 70
     1
102
RTVSPropertyOp25
 70
     1
102
RTVSPropertyOp26
 70
     1
102
RTVSPropertyOp27
 70
     1
102
RTVSPropertyOp28
 70
     1
102
RTVSPropertyOp29
 70
     1
102
RTVSPropertyOp30
 70
     1
102
RTVSPropertyOp31
 70
     1
102
RTVSPropertyOp32
 70
     1
102
RTVSPropertyOp33
 70
     1
102
RTVSPropertyOp34
 70
     1
102
RTVSPropertyOp35
 70
     1
102
RTVSPropertyOp36
 70
     1
102
RTVSPropertyOp37
 70
     1
102
RTVSPropertyOp38
 70
     1
102
RTVSPropertyOp39
 70
     1
102
RTVSPropertyOp40
 70
     1
102
RTVSPropertyOp41
 70
     1
102
RTVSPropertyOp42
 70
     1
102
RTVSPropertyOp43
 70
     1
102
RTVSPropertyOp44
 70
     1
102
RTVSPropertyOp45
 70
     1
102
RTVSPropertyOp46
 70
     1
102
RTVSPropertyOp47
 70
     1
102
RTVSPropertyOp48
 70
     1
102
RTVSPropertyOp49
 70
     1
102
RTVSPropertyOp50
 70
     1
102
RTVSPropertyOp51
 70
     0
102
RTVSPropertyOp52
 70
     0
102
RTVSPropertyOp53
 70
     1
102
RTVSPropertyOp54
 70
     1
102
RTVSPropertyOp55
 70
     1
102
RTVSPropertyOp56
 70
     1
102
RTVSPropertyOp57
 70
     1
102
RTVSPost2010Prop28
280
     0
102
RTVSPost2010PropOp28
 70
     1
102
RTVSPost2010Prop29
280
     1
102
RTVSPost2010PropOp29
 70
     1
102
RTVSPost2010Prop30
280
     1
102
RTVSPost2010PropOp30
 70
     1
102
RTVSPost2010Prop31
280
     0
102
RTVSPost2010PropOp31
 70
     1
102
RTVSPost2010Prop32
280
     0
102
RTVSPost2010PropOp32
 70
     1
102
RTVSPost2010Prop33
280
     0
102
RTVSPost2010PropOp33
 70
     1
102
RTVSPost2010Prop34
280
     0
102
RTVSPost2010PropOp34
 70
     1
102
RTVSPost2010Prop35
280
     0
102
RTVSPost2010PropOp35
 70
     1
102
RTVSPost2010Prop36
280
     0
102
RTVSPost2010PropOp36
 70
     1
102
RTVSPost2010Prop37
 90
       50
102
RTVSPost2010PropOp37
 70
     1
102
RTVSPost2010Prop38
140
0.0
102
RTVSPost2010PropOp38
 70
     1
102
RTVSPost2010Prop39
140
1.0
102
RTVSPost2010PropOp39
 70
     1
102
RTVSPost2010Prop40
 90
        0
102
RTVSPost2010PropOp40
 70
     1
102
RTVSPost2010Prop41ColorIndex
 90
       18
102
RTVSPost2010Prop41ColorRGB
 90
        0
102
RTVSPost2010PropOp41
 70
     1
102
RTVSPost2010Prop42
 90
       50
102
RTVSPost2010PropOp42
 70
     1
102
RTVSPost2010Prop43
 90
        3
102
RTVSPost2010PropOp43
 70
     1
102
RTVSPost2010Prop44ColorIndex
 90
        5
102
RTVSPost2010Prop44ColorRGB
 90
      255
102
RTVSPost2010PropOp44
 70
     1
102
RTVSPost2010Prop45
280
     0
102
RTVSPost2010PropOp45
 70
     1
102
RTVSPost2010Prop46
 90
       50
102
RTVSPost2010PropOp46
 70
     1
102
RTVSPost2010Prop47
 90
       50
102
RTVSPost2010PropOp47
 70
     1
102
RTVSPost2010Prop48
 90
       50
102
RTVSPost2010PropOp48
 70
     1
102
RTVSPost2010Prop49
280
     0
102
RTVSPost2010PropOp49
 70
     1
102
RTVSPost2010Prop50
 90
       50
102
RTVSPost2010PropOp50
 70
     1
102
RTVSPost2010Prop51ColorIndex
 90
      256
102
RTVSPost2010Prop51ColorRGB
 90
-16777216
102
RTVSPost2010PropOp51
 70
     0
102
RTVSPost2010Prop52
140
1.0
102
RTVSPost2010PropOp52
 70
     0
102
RTVSPost2010Prop53
 90
        2
102
RTVSPost2010PropOp53
 70
     1
102
RTVSPost2010Prop54
  1
strokes_ogs.tif
102
RTVSPost2010PropOp54
 70
     1
102
RTVSPost2010Prop55
280
     0
102
RTVSPost2010PropOp55
 70
     1
102
RTVSPost2010Prop56
140
1.0
102
RTVSPost2010PropOp56
 70
     1
102
RTVSPost2010Prop57
140
1.0
102
RTVSPost2010PropOp57
 70
     1
  0
XRECORD
  5
342
102
{ACAD_REACTORS
330
341
102
}
330
341
100
AcDbXrecord
280
     1
102
RTVSPropertyOp0
 70
     1
102
RTVSPropertyOp1
 70
     1
102
RTVSPropertyOp2
 70
     1
102
RTVSPropertyOp3
 70
     1
102
RTVSPropertyOp4
 70
     1
102
RTVSPropertyOp5
 70
     1
102
RTVSPropertyOp6
 70
     1
102
RTVSPropertyOp7
 70
     1
102
RTVSPropertyOp8
 70
     1
102
RTVSPropertyOp9
 70
     1
102
RTVSPropertyOp10
 70
     1
102
RTVSPropertyOp11
 70
     1
102
RTVSPropertyOp12
 70
     1
102
RTVSPropertyOp13
 70
     1
102
RTVSPropertyOp14
 70
     1
102
RTVSPropertyOp15
 70
     1
102
RTVSPropertyOp16
 70
     1
102
RTVSPropertyOp17
 70
     1
102
RTVSPropertyOp18
 70
     1
102
RTVSPropertyOp19
 70
     1
102
RTVSPropertyOp20
 70
     1
102
RTVSPropertyOp21
 70
     1
102
RTVSPropertyOp22
 70
     1
102
RTVSPropertyOp23
 70
     1
102
RTVSPropertyOp24
 70
     1
102
RTVSPropertyOp25
 70
     1
102
RTVSPropertyOp26
 70
     1
102
RTVSPropertyOp27
 70
     1
102
RTVSPropertyOp28
 70
     1
102
RTVSPropertyOp29
 70
     1
102
RTVSPropertyOp30
 70
     1
102
RTVSPropertyOp31
 70
     1
102
RTVSPropertyOp32
 70
     1
102
RTVSPropertyOp33
 70
     1
102
RTVSPropertyOp34
 70
     1
102
RTVSPropertyOp35
 70
     1
102
RTVSPropertyOp36
 70
     1
102
RTVSPropertyOp37
 70
     1
102
RTVSPropertyOp38
 70
     1
102
RTVSPropertyOp39
 70
     1
102
RTVSPropertyOp40
 70
     1
102
RTVSPropertyOp41
 70
     1
102
RTVSPropertyOp42
 70
     1
102
RTVSPropertyOp43
 70
     1
102
RTVSPropertyOp44
 70
     1
102
RTVSPropertyOp45
 70
     1
102
RTVSPropertyOp46
 70
     1
102
RTVSPropertyOp47
 70
     1
102
RTVSPropertyOp48
 70
     1
102
RTVSPropertyOp49
 70
     1
102
RTVSPropertyOp50
 70
     1
102
RTVSPropertyOp51
 70
     0
102
RTVSPropertyOp52
 70
     0
102
RTVSPropertyOp53
 70
     1
102
RTVSPropertyOp54
 70
     1
102
RTVSPropertyOp55
 70
     1
102
RTVSPropertyOp56
 70
     1
102
RTVSPropertyOp57
 70
     1
102
RTVSPost2010Prop28
280
     0
102
RTVSPost2010PropOp28
 70
     1
102
RTVSPost2010Prop29
280
     1
102
RTVSPost2010PropOp29
 70
     1
102
RTVSPost2010Prop30
280
     1
102
RTVSPost2010PropOp30
 70
     1
102
RTVSPost2010Prop31
280
     0
102
RTVSPost2010PropOp31
 70
     1
102
RTVSPost2010Prop32
280
     0
102
RTVSPost2010PropOp32
 70
     1
102
RTVSPost2010Prop33
280
     0
102
RTVSPost2010PropOp33
 70
     1
102
RTVSPost2010Prop34
280
     0
102
RTVSPost2010PropOp34
 70
     1
102
RTVSPost2010Prop35
280
     0
102
RTVSPost2010PropOp35
 70
     1
102
RTVSPost2010Prop36
280
     0
102
RTVSPost2010PropOp36
 70
     1
102
RTVSPost2010Prop37
 90
       50
102
RTVSPost2010PropOp37
 70
     1
102
RTVSPost2010Prop38
140
0.0
102
RTVSPost2010PropOp38
 70
     1
102
RTVSPost2010Prop39
140
1.0
102
RTVSPost2010PropOp39
 70
     1
102
RTVSPost2010Prop40
 90
        0
102
RTVSPost2010PropOp40
 70
     1
102
RTVSPost2010Prop41ColorIndex
 90
       18
102
RTVSPost2010Prop41ColorRGB
 90
        0
102
RTVSPost2010PropOp41
 70
     1
102
RTVSPost2010Prop42
 90
       50
102
RTVSPost2010PropOp42
 70
     1
102
RTVSPost2010Prop43
 90
        3
102
RTVSPost2010PropOp43
 70
     1
102
RTVSPost2010Prop44ColorIndex
 90
        5
102
RTVSPost2010Prop44ColorRGB
 90
      255
102
RTVSPost2010PropOp44
 70
     1
102
RTVSPost2010Prop45
280
     0
102
RTVSPost2010PropOp45
 70
     1
102
RTVSPost2010Prop46
 90
       50
102
RTVSPost2010PropOp46
 70
     1
102
RTVSPost2010Prop47
 90
       50
102
RTVSPost2010PropOp47
 70
     1
102
RTVSPost2010Prop48
 90
       50
102
RTVSPost2010PropOp48
 70
     1
102
RTVSPost2010Prop49
280
     0
102
RTVSPost2010PropOp49
 70
     1
102
RTVSPost2010Prop50
 90
       50
102
RTVSPost2010PropOp50
 70
     1
102
RTVSPost2010Prop51ColorIndex
 90
      256
102
RTVSPost2010Prop51ColorRGB
 90
-16777216
102
RTVSPost2010PropOp51
 70
     0
102
RTVSPost2010Prop52
140
1.0
102
RTVSPost2010PropOp52
 70
     0
102
RTVSPost2010Prop53
 90
        2
102
RTVSPost2010PropOp53
 70
     1
102
RTVSPost2010Prop54
  1
strokes_ogs.tif
102
RTVSPost2010PropOp54
 70
     1
102
RTVSPost2010Prop55
280
     0
102
RTVSPost2010PropOp55
 70
     1
102
RTVSPost2010Prop56
140
1.0
102
RTVSPost2010PropOp56
 70
     1
102
RTVSPost2010Prop57
140
1.0
102
RTVSPost2010PropOp57
 70
     1
  0
XRECORD
  5
344
102
{ACAD_REACTORS
330
343
102
}
330
343
100
AcDbXrecord
280
     1
102
RTVSPropertyOp0
 70
     1
102
RTVSPropertyOp1
 70
     1
102
RTVSPropertyOp2
 70
     1
102
RTVSPropertyOp3
 70
     1
102
RTVSPropertyOp4
 70
     1
102
RTVSPropertyOp5
 70
     1
102
RTVSPropertyOp6
 70
     1
102
RTVSPropertyOp7
 70
     1
102
RTVSPropertyOp8
 70
     1
102
RTVSPropertyOp9
 70
     1
102
RTVSPropertyOp10
 70
     1
102
RTVSPropertyOp11
 70
     1
102
RTVSPropertyOp12
 70
     1
102
RTVSPropertyOp13
 70
     1
102
RTVSPropertyOp14
 70
     1
102
RTVSPropertyOp15
 70
     1
102
RTVSPropertyOp16
 70
     1
102
RTVSPropertyOp17
 70
     1
102
RTVSPropertyOp18
 70
     1
102
RTVSPropertyOp19
 70
     1
102
RTVSPropertyOp20
 70
     1
102
RTVSPropertyOp21
 70
     1
102
RTVSPropertyOp22
 70
     1
102
RTVSPropertyOp23
 70
     1
102
RTVSPropertyOp24
 70
     1
102
RTVSPropertyOp25
 70
     1
102
RTVSPropertyOp26
 70
     1
102
RTVSPropertyOp27
 70
     1
102
RTVSPropertyOp28
 70
     1
102
RTVSPropertyOp29
 70
     1
102
RTVSPropertyOp30
 70
     1
102
RTVSPropertyOp31
 70
     1
102
RTVSPropertyOp32
 70
     1
102
RTVSPropertyOp33
 70
     1
102
RTVSPropertyOp34
 70
     1
102
RTVSPropertyOp35
 70
     1
102
RTVSPropertyOp36
 70
     1
102
RTVSPropertyOp37
 70
     1
102
RTVSPropertyOp38
 70
     1
102
RTVSPropertyOp39
 70
     1
102
RTVSPropertyOp40
 70
     1
102
RTVSPropertyOp41
 70
     1
102
RTVSPropertyOp42
 70
     1
102
RTVSPropertyOp43
 70
     1
102
RTVSPropertyOp44
 70
     1
102
RTVSPropertyOp45
 70
     1
102
RTVSPropertyOp46
 70
     1
102
RTVSPropertyOp47
 70
     1
102
RTVSPropertyOp48
 70
     1
102
RTVSPropertyOp49
 70
     1
102
RTVSPropertyOp50
 70
     1
102
RTVSPropertyOp51
 70
     0
102
RTVSPropertyOp52
 70
     0
102
RTVSPropertyOp53
 70
     1
102
RTVSPropertyOp54
 70
     1
102
RTVSPropertyOp55
 70
     1
102
RTVSPropertyOp56
 70
     1
102
RTVSPropertyOp57
 70
     1
102
RTVSPost2010Prop28
280
     0
102
RTVSPost2010PropOp28
 70
     1
102
RTVSPost2010Prop29
280
     1
102
RTVSPost2010PropOp29
 70
     1
102
RTVSPost2010Prop30
280
     1
102
RTVSPost2010PropOp30
 70
     1
102
RTVSPost2010Prop31
280
     0
102
RTVSPost2010PropOp31
 70
     1
102
RTVSPost2010Prop32
280
     0
102
RTVSPost2010PropOp32
 70
     1
102
RTVSPost2010Prop33
280
     0
102
RTVSPost2010PropOp33
 70
     1
102
RTVSPost2010Prop34
280
     0
102
RTVSPost2010PropOp34
 70
     1
102
RTVSPost2010Prop35
280
     0
102
RTVSPost2010PropOp35
 70
     1
102
RTVSPost2010Prop36
280
     0
102
RTVSPost2010PropOp36
 70
     1
102
RTVSPost2010Prop37
 90
       50
102
RTVSPost2010PropOp37
 70
     1
102
RTVSPost2010Prop38
140
0.0
102
RTVSPost2010PropOp38
 70
     1
102
RTVSPost2010Prop39
140
1.0
102
RTVSPost2010PropOp39
 70
     1
102
RTVSPost2010Prop40
 90
        0
102
RTVSPost2010PropOp40
 70
     1
102
RTVSPost2010Prop41ColorIndex
 90
       18
102
RTVSPost2010Prop41ColorRGB
 90
        0
102
RTVSPost2010PropOp41
 70
     1
102
RTVSPost2010Prop42
 90
       50
102
RTVSPost2010PropOp42
 70
     1
102
RTVSPost2010Prop43
 90
        3
102
RTVSPost2010PropOp43
 70
     1
102
RTVSPost2010Prop44ColorIndex
 90
        5
102
RTVSPost2010Prop44ColorRGB
 90
      255
102
RTVSPost2010PropOp44
 70
     1
102
RTVSPost2010Prop45
280
     0
102
RTVSPost2010PropOp45
 70
     1
102
RTVSPost2010Prop46
 90
       50
102
RTVSPost2010PropOp46
 70
     1
102
RTVSPost2010Prop47
 90
       50
102
RTVSPost2010PropOp47
 70
     1
102
RTVSPost2010Prop48
 90
       50
102
RTVSPost2010PropOp48
 70
     1
102
RTVSPost2010Prop49
280
     0
102
RTVSPost2010PropOp49
 70
     1
102
RTVSPost2010Prop50
 90
       50
102
RTVSPost2010PropOp50
 70
     1
102
RTVSPost2010Prop51ColorIndex
 90
      256
102
RTVSPost2010Prop51ColorRGB
 90
-16777216
102
RTVSPost2010PropOp51
 70
     0
102
RTVSPost2010Prop52
140
1.0
102
RTVSPost2010PropOp52
 70
     0
102
RTVSPost2010Prop53
 90
        2
102
RTVSPost2010PropOp53
 70
     1
102
RTVSPost2010Prop54
  1
strokes_ogs.tif
102
RTVSPost2010PropOp54
 70
     1
102
RTVSPost2010Prop55
280
     0
102
RTVSPost2010PropOp55
 70
     1
102
RTVSPost2010Prop56
140
1.0
102
RTVSPost2010PropOp56
 70
     1
102
RTVSPost2010Prop57
140
1.0
102
RTVSPost2010PropOp57
 70
     1
  0
XRECORD
  5
34A
102
{ACAD_REACTORS
330
349
102
}
330
349
100
AcDbXrecord
280
     1
102
RTVSPropertyOp0
 70
     1
102
RTVSPropertyOp1
 70
     1
102
RTVSPropertyOp2
 70
     1
102
RTVSPropertyOp3
 70
     1
102
RTVSPropertyOp4
 70
     1
102
RTVSPropertyOp5
 70
     1
102
RTVSPropertyOp6
 70
     1
102
RTVSPropertyOp7
 70
     1
102
RTVSPropertyOp8
 70
     1
102
RTVSPropertyOp9
 70
     1
102
RTVSPropertyOp10
 70
     1
102
RTVSPropertyOp11
 70
     1
102
RTVSPropertyOp12
 70
     1
102
RTVSPropertyOp13
 70
     1
102
RTVSPropertyOp14
 70
     1
102
RTVSPropertyOp15
 70
     1
102
RTVSPropertyOp16
 70
     1
102
RTVSPropertyOp17
 70
     1
102
RTVSPropertyOp18
 70
     1
102
RTVSPropertyOp19
 70
     1
102
RTVSPropertyOp20
 70
     1
102
RTVSPropertyOp21
 70
     1
102
RTVSPropertyOp22
 70
     1
102
RTVSPropertyOp23
 70
     1
102
RTVSPropertyOp24
 70
     1
102
RTVSPropertyOp25
 70
     1
102
RTVSPropertyOp26
 70
     1
102
RTVSPropertyOp27
 70
     1
102
RTVSPropertyOp28
 70
     1
102
RTVSPropertyOp29
 70
     1
102
RTVSPropertyOp30
 70
     1
102
RTVSPropertyOp31
 70
     1
102
RTVSPropertyOp32
 70
     1
102
RTVSPropertyOp33
 70
     1
102
RTVSPropertyOp34
 70
     1
102
RTVSPropertyOp35
 70
     1
102
RTVSPropertyOp36
 70
     1
102
RTVSPropertyOp37
 70
     1
102
RTVSPropertyOp38
 70
     1
102
RTVSPropertyOp39
 70
     1
102
RTVSPropertyOp40
 70
     1
102
RTVSPropertyOp41
 70
     1
102
RTVSPropertyOp42
 70
     1
102
RTVSPropertyOp43
 70
     1
102
RTVSPropertyOp44
 70
     1
102
RTVSPropertyOp45
 70
     1
102
RTVSPropertyOp46
 70
     1
102
RTVSPropertyOp47
 70
     1
102
RTVSPropertyOp48
 70
     1
102
RTVSPropertyOp49
 70
     1
102
RTVSPropertyOp50
 70
     1
102
RTVSPropertyOp51
 70
     0
102
RTVSPropertyOp52
 70
     0
102
RTVSPropertyOp53
 70
     1
102
RTVSPropertyOp54
 70
     1
102
RTVSPropertyOp55
 70
     1
102
RTVSPropertyOp56
 70
     1
102
RTVSPropertyOp57
 70
     1
102
RTVSPost2010Prop28
280
     0
102
RTVSPost2010PropOp28
 70
     1
102
RTVSPost2010Prop29
280
     1
102
RTVSPost2010PropOp29
 70
     1
102
RTVSPost2010Prop30
280
     1
102
RTVSPost2010PropOp30
 70
     1
102
RTVSPost2010Prop31
280
     0
102
RTVSPost2010PropOp31
 70
     1
102
RTVSPost2010Prop32
280
     0
102
RTVSPost2010PropOp32
 70
     1
102
RTVSPost2010Prop33
280
     0
102
RTVSPost2010PropOp33
 70
     1
102
RTVSPost2010Prop34
280
     0
102
RTVSPost2010PropOp34
 70
     1
102
RTVSPost2010Prop35
280
     0
102
RTVSPost2010PropOp35
 70
     1
102
RTVSPost2010Prop36
280
     0
102
RTVSPost2010PropOp36
 70
     1
102
RTVSPost2010Prop37
 90
       50
102
RTVSPost2010PropOp37
 70
     1
102
RTVSPost2010Prop38
140
0.0
102
RTVSPost2010PropOp38
 70
     1
102
RTVSPost2010Prop39
140
1.0
102
RTVSPost2010PropOp39
 70
     1
102
RTVSPost2010Prop40
 90
        0
102
RTVSPost2010PropOp40
 70
     1
102
RTVSPost2010Prop41ColorIndex
 90
       18
102
RTVSPost2010Prop41ColorRGB
 90
        0
102
RTVSPost2010PropOp41
 70
     1
102
RTVSPost2010Prop42
 90
       50
102
RTVSPost2010PropOp42
 70
     1
102
RTVSPost2010Prop43
 90
        3
102
RTVSPost2010PropOp43
 70
     1
102
RTVSPost2010Prop44ColorIndex
 90
        5
102
RTVSPost2010Prop44ColorRGB
 90
      255
102
RTVSPost2010PropOp44
 70
     1
102
RTVSPost2010Prop45
280
     0
102
RTVSPost2010PropOp45
 70
     1
102
RTVSPost2010Prop46
 90
       50
102
RTVSPost2010PropOp46
 70
     1
102
RTVSPost2010Prop47
 90
       50
102
RTVSPost2010PropOp47
 70
     1
102
RTVSPost2010Prop48
 90
       50
102
RTVSPost2010PropOp48
 70
     1
102
RTVSPost2010Prop49
280
     0
102
RTVSPost2010PropOp49
 70
     1
102
RTVSPost2010Prop50
 90
       50
102
RTVSPost2010PropOp50
 70
     1
102
RTVSPost2010Prop51ColorIndex
 90
      256
102
RTVSPost2010Prop51ColorRGB
 90
-16777216
102
RTVSPost2010PropOp51
 70
     0
102
RTVSPost2010Prop52
140
1.0
102
RTVSPost2010PropOp52
 70
     0
102
RTVSPost2010Prop53
 90
        2
102
RTVSPost2010PropOp53
 70
     1
102
RTVSPost2010Prop54
  1
strokes_ogs.tif
102
RTVSPost2010PropOp54
 70
     1
102
RTVSPost2010Prop55
280
     0
102
RTVSPost2010PropOp55
 70
     1
102
RTVSPost2010Prop56
140
1.0
102
RTVSPost2010PropOp56
 70
     1
102
RTVSPost2010Prop57
140
1.0
102
RTVSPost2010PropOp57
 70
     1
  0
XRECORD
  5
35E
102
{ACAD_REACTORS
330
35D
102
}
330
35D
100
AcDbXrecord
280
     1
102
RTVSPropertyOp0
 70
     0
102
RTVSPropertyOp1
 70
     0
102
RTVSPropertyOp2
 70
     0
102
RTVSPropertyOp3
 70
     0
102
RTVSPropertyOp4
 70
     0
102
RTVSPropertyOp5
 70
     0
102
RTVSPropertyOp6
 70
     0
102
RTVSPropertyOp7
 70
     0
102
RTVSPropertyOp8
 70
     0
102
RTVSPropertyOp9
 70
     0
102
RTVSPropertyOp10
 70
     0
102
RTVSPropertyOp11
 70
     0
102
RTVSPropertyOp12
 70
     0
102
RTVSPropertyOp13
 70
     0
102
RTVSPropertyOp14
 70
     2
102
RTVSPropertyOp15
 70
     0
102
RTVSPropertyOp16
 70
     0
102
RTVSPropertyOp17
 70
     0
102
RTVSPropertyOp18
 70
     0
102
RTVSPropertyOp19
 70
     0
102
RTVSPropertyOp20
 70
     0
102
RTVSPropertyOp21
 70
     0
102
RTVSPropertyOp22
 70
     0
102
RTVSPropertyOp23
 70
     0
102
RTVSPropertyOp24
 70
     0
102
RTVSPropertyOp25
 70
     0
102
RTVSPropertyOp26
 70
     0
102
RTVSPropertyOp27
 70
     0
102
RTVSPropertyOp28
 70
     0
102
RTVSPropertyOp29
 70
     0
102
RTVSPropertyOp30
 70
     0
102
RTVSPropertyOp31
 70
     0
102
RTVSPropertyOp32
 70
     0
102
RTVSPropertyOp33
 70
     0
102
RTVSPropertyOp34
 70
     0
102
RTVSPropertyOp35
 70
     0
102
RTVSPropertyOp36
 70
     0
102
RTVSPropertyOp37
 70
     0
102
RTVSPropertyOp38
 70
     0
102
RTVSPropertyOp39
 70
     0
102
RTVSPropertyOp40
 70
     0
102
RTVSPropertyOp41
 70
     0
102
RTVSPropertyOp42
 70
     0
102
RTVSPropertyOp43
 70
     0
102
RTVSPropertyOp44
 70
     0
102
RTVSPropertyOp45
 70
     0
102
RTVSPropertyOp46
 70
     0
102
RTVSPropertyOp47
 70
     0
102
RTVSPropertyOp48
 70
     0
102
RTVSPropertyOp49
 70
     0
102
RTVSPropertyOp50
 70
     0
102
RTVSPropertyOp51
 70
     0
102
RTVSPropertyOp52
 70
     0
102
RTVSPropertyOp53
 70
     0
102
RTVSPropertyOp54
 70
     0
102
RTVSPropertyOp55
 70
     0
102
RTVSPropertyOp56
 70
     0
102
RTVSPropertyOp57
 70
     0
102
RTVSPost2010Prop28
280
     0
102
RTVSPost2010PropOp28
 70
     0
102
RTVSPost2010Prop29
280
     1
102
RTVSPost2010PropOp29
 70
     0
102
RTVSPost2010Prop30
280
     1
102
RTVSPost2010PropOp30
 70
     0
102
RTVSPost2010Prop31
280
     0
102
RTVSPost2010PropOp31
 70
     0
102
RTVSPost2010Prop32
280
     0
102
RTVSPost2010PropOp32
 70
     0
102
RTVSPost2010Prop33
280
     0
102
RTVSPost2010PropOp33
 70
     0
102
RTVSPost2010Prop34
280
     0
102
RTVSPost2010PropOp34
 70
     0
102
RTVSPost2010Prop35
280
     0
102
RTVSPost2010PropOp35
 70
     0
102
RTVSPost2010Prop36
280
     0
102
RTVSPost2010PropOp36
 70
     0
102
RTVSPost2010Prop37
 90
       50
102
RTVSPost2010PropOp37
 70
     0
102
RTVSPost2010Prop38
140
0.0
102
RTVSPost2010PropOp38
 70
     0
102
RTVSPost2010Prop39
140
1.0
102
RTVSPost2010PropOp39
 70
     0
102
RTVSPost2010Prop40
 90
        0
102
RTVSPost2010PropOp40
 70
     0
102
RTVSPost2010Prop41ColorIndex
 90
       18
102
RTVSPost2010Prop41ColorRGB
 90
        0
102
RTVSPost2010PropOp41
 70
     0
102
RTVSPost2010Prop42
 90
       50
102
RTVSPost2010PropOp42
 70
     0
102
RTVSPost2010Prop43
 90
        3
102
RTVSPost2010PropOp43
 70
     0
102
RTVSPost2010Prop44ColorIndex
 90
        5
102
RTVSPost2010Prop44ColorRGB
 90
      255
102
RTVSPost2010PropOp44
 70
     0
102
RTVSPost2010Prop45
280
     0
102
RTVSPost2010PropOp45
 70
     0
102
RTVSPost2010Prop46
 90
       50
102
RTVSPost2010PropOp46
 70
     0
102
RTVSPost2010Prop47
 90
       50
102
RTVSPost2010PropOp47
 70
     0
102
RTVSPost2010Prop48
 90
       50
102
RTVSPost2010PropOp48
 70
     0
102
RTVSPost2010Prop49
280
     0
102
RTVSPost2010PropOp49
 70
     0
102
RTVSPost2010Prop50
 90
       50
102
RTVSPost2010PropOp50
 70
     0
102
RTVSPost2010Prop51ColorIndex
 90
      256
102
RTVSPost2010Prop51ColorRGB
 90
-16777216
102
RTVSPost2010PropOp51
 70
     0
102
RTVSPost2010Prop52
140
1.0
102
RTVSPost2010PropOp52
 70
     0
102
RTVSPost2010Prop53
 90
        2
102
RTVSPost2010PropOp53
 70
     0
102
RTVSPost2010Prop54
  1
strokes_ogs.tif
102
RTVSPost2010PropOp54
 70
     0
102
RTVSPost2010Prop55
280
     0
102
RTVSPost2010PropOp55
 70
     0
102
RTVSPost2010Prop56
140
1.0
102
RTVSPost2010PropOp56
 70
     0
102
RTVSPost2010Prop57
140
1.0
102
RTVSPost2010PropOp57
 70
     0
  0
XRECORD
  5
358
102
{ACAD_REACTORS
330
357
102
}
330
357
100
AcDbXrecord
280
     1
102
RTVSPropertyOp0
 70
     1
102
RTVSPropertyOp1
 70
     1
102
RTVSPropertyOp2
 70
     1
102
RTVSPropertyOp3
 70
     1
102
RTVSPropertyOp4
 70
     1
102
RTVSPropertyOp5
 70
     1
102
RTVSPropertyOp6
 70
     1
102
RTVSPropertyOp7
 70
     1
102
RTVSPropertyOp8
 70
     1
102
RTVSPropertyOp9
 70
     1
102
RTVSPropertyOp10
 70
     1
102
RTVSPropertyOp11
 70
     1
102
RTVSPropertyOp12
 70
     1
102
RTVSPropertyOp13
 70
     1
102
RTVSPropertyOp14
 70
     1
102
RTVSPropertyOp15
 70
     1
102
RTVSPropertyOp16
 70
     1
102
RTVSPropertyOp17
 70
     1
102
RTVSPropertyOp18
 70
     1
102
RTVSPropertyOp19
 70
     1
102
RTVSPropertyOp20
 70
     1
102
RTVSPropertyOp21
 70
     1
102
RTVSPropertyOp22
 70
     1
102
RTVSPropertyOp23
 70
     1
102
RTVSPropertyOp24
 70
     1
102
RTVSPropertyOp25
 70
     1
102
RTVSPropertyOp26
 70
     1
102
RTVSPropertyOp27
 70
     1
102
RTVSPropertyOp28
 70
     1
102
RTVSPropertyOp29
 70
     1
102
RTVSPropertyOp30
 70
     1
102
RTVSPropertyOp31
 70
     1
102
RTVSPropertyOp32
 70
     1
102
RTVSPropertyOp33
 70
     1
102
RTVSPropertyOp34
 70
     1
102
RTVSPropertyOp35
 70
     1
102
RTVSPropertyOp36
 70
     1
102
RTVSPropertyOp37
 70
     1
102
RTVSPropertyOp38
 70
     1
102
RTVSPropertyOp39
 70
     1
102
RTVSPropertyOp40
 70
     1
102
RTVSPropertyOp41
 70
     1
102
RTVSPropertyOp42
 70
     1
102
RTVSPropertyOp43
 70
     1
102
RTVSPropertyOp44
 70
     1
102
RTVSPropertyOp45
 70
     1
102
RTVSPropertyOp46
 70
     1
102
RTVSPropertyOp47
 70
     1
102
RTVSPropertyOp48
 70
     1
102
RTVSPropertyOp49
 70
     1
102
RTVSPropertyOp50
 70
     1
102
RTVSPropertyOp51
 70
     0
102
RTVSPropertyOp52
 70
     0
102
RTVSPropertyOp53
 70
     1
102
RTVSPropertyOp54
 70
     1
102
RTVSPropertyOp55
 70
     1
102
RTVSPropertyOp56
 70
     1
102
RTVSPropertyOp57
 70
     1
102
RTVSPost2010Prop28
280
     0
102
RTVSPost2010PropOp28
 70
     1
102
RTVSPost2010Prop29
280
     1
102
RTVSPost2010PropOp29
 70
     1
102
RTVSPost2010Prop30
280
     1
102
RTVSPost2010PropOp30
 70
     1
102
RTVSPost2010Prop31
280
     0
102
RTVSPost2010PropOp31
 70
     1
102
RTVSPost2010Prop32
280
     0
102
RTVSPost2010PropOp32
 70
     1
102
RTVSPost2010Prop33
280
     0
102
RTVSPost2010PropOp33
 70
     1
102
RTVSPost2010Prop34
280
     0
102
RTVSPost2010PropOp34
 70
     1
102
RTVSPost2010Prop35
280
     0
102
RTVSPost2010PropOp35
 70
     1
102
RTVSPost2010Prop36
280
     0
102
RTVSPost2010PropOp36
 70
     1
102
RTVSPost2010Prop37
 90
       50
102
RTVSPost2010PropOp37
 70
     1
102
RTVSPost2010Prop38
140
0.0
102
RTVSPost2010PropOp38
 70
     1
102
RTVSPost2010Prop39
140
1.0
102
RTVSPost2010PropOp39
 70
     1
102
RTVSPost2010Prop40
 90
        0
102
RTVSPost2010PropOp40
 70
     1
102
RTVSPost2010Prop41ColorIndex
 90
       18
102
RTVSPost2010Prop41ColorRGB
 90
        0
102
RTVSPost2010PropOp41
 70
     1
102
RTVSPost2010Prop42
 90
       50
102
RTVSPost2010PropOp42
 70
     1
102
RTVSPost2010Prop43
 90
        3
102
RTVSPost2010PropOp43
 70
     1
102
RTVSPost2010Prop44ColorIndex
 90
        5
102
RTVSPost2010Prop44ColorRGB
 90
      255
102
RTVSPost2010PropOp44
 70
     1
102
RTVSPost2010Prop45
280
     0
102
RTVSPost2010PropOp45
 70
     1
102
RTVSPost2010Prop46
 90
       50
102
RTVSPost2010PropOp46
 70
     1
102
RTVSPost2010Prop47
 90
       50
102
RTVSPost2010PropOp47
 70
     1
102
RTVSPost2010Prop48
 90
       50
102
RTVSPost2010PropOp48
 70
     1
102
RTVSPost2010Prop49
280
     0
102
RTVSPost2010PropOp49
 70
     1
102
RTVSPost2010Prop50
 90
       50
102
RTVSPost2010PropOp50
 70
     1
102
RTVSPost2010Prop51ColorIndex
 90
      256
102
RTVSPost2010Prop51ColorRGB
 90
-16777216
102
RTVSPost2010PropOp51
 70
     0
102
RTVSPost2010Prop52
140
1.0
102
RTVSPost2010PropOp52
 70
     0
102
RTVSPost2010Prop53
 90
        2
102
RTVSPost2010PropOp53
 70
     1
102
RTVSPost2010Prop54
  1
strokes_ogs.tif
102
RTVSPost2010PropOp54
 70
     1
102
RTVSPost2010Prop55
280
     0
102
RTVSPost2010PropOp55
 70
     1
102
RTVSPost2010Prop56
140
1.0
102
RTVSPost2010PropOp56
 70
     1
102
RTVSPost2010Prop57
140
1.0
102
RTVSPost2010PropOp57
 70
     1
  0
XRECORD
  5
360
102
{ACAD_REACTORS
330
35F
102
}
330
35F
100
AcDbXrecord
280
     1
102
RTVSPropertyOp0
 70
     0
102
RTVSPropertyOp1
 70
     0
102
RTVSPropertyOp2
 70
     0
102
RTVSPropertyOp3
 70
     0
102
RTVSPropertyOp4
 70
     0
102
RTVSPropertyOp5
 70
     0
102
RTVSPropertyOp6
 70
     0
102
RTVSPropertyOp7
 70
     0
102
RTVSPropertyOp8
 70
     0
102
RTVSPropertyOp9
 70
     0
102
RTVSPropertyOp10
 70
     0
102
RTVSPropertyOp11
 70
     0
102
RTVSPropertyOp12
 70
     0
102
RTVSPropertyOp13
 70
     0
102
RTVSPropertyOp14
 70
     2
102
RTVSPropertyOp15
 70
     0
102
RTVSPropertyOp16
 70
     0
102
RTVSPropertyOp17
 70
     0
102
RTVSPropertyOp18
 70
     0
102
RTVSPropertyOp19
 70
     0
102
RTVSPropertyOp20
 70
     0
102
RTVSPropertyOp21
 70
     0
102
RTVSPropertyOp22
 70
     0
102
RTVSPropertyOp23
 70
     0
102
RTVSPropertyOp24
 70
     0
102
RTVSPropertyOp25
 70
     0
102
RTVSPropertyOp26
 70
     0
102
RTVSPropertyOp27
 70
     0
102
RTVSPropertyOp28
 70
     0
102
RTVSPropertyOp29
 70
     0
102
RTVSPropertyOp30
 70
     0
102
RTVSPropertyOp31
 70
     0
102
RTVSPropertyOp32
 70
     0
102
RTVSPropertyOp33
 70
     0
102
RTVSPropertyOp34
 70
     0
102
RTVSPropertyOp35
 70
     0
102
RTVSPropertyOp36
 70
     0
102
RTVSPropertyOp37
 70
     0
102
RTVSPropertyOp38
 70
     0
102
RTVSPropertyOp39
 70
     0
102
RTVSPropertyOp40
 70
     0
102
RTVSPropertyOp41
 70
     0
102
RTVSPropertyOp42
 70
     0
102
RTVSPropertyOp43
 70
     0
102
RTVSPropertyOp44
 70
     0
102
RTVSPropertyOp45
 70
     0
102
RTVSPropertyOp46
 70
     0
102
RTVSPropertyOp47
 70
     0
102
RTVSPropertyOp48
 70
     0
102
RTVSPropertyOp49
 70
     0
102
RTVSPropertyOp50
 70
     0
102
RTVSPropertyOp51
 70
     0
102
RTVSPropertyOp52
 70
     0
102
RTVSPropertyOp53
 70
     0
102
RTVSPropertyOp54
 70
     0
102
RTVSPropertyOp55
 70
     0
102
RTVSPropertyOp56
 70
     0
102
RTVSPropertyOp57
 70
     0
102
RTVSPost2010Prop28
280
     0
102
RTVSPost2010PropOp28
 70
     0
102
RTVSPost2010Prop29
280
     1
102
RTVSPost2010PropOp29
 70
     0
102
RTVSPost2010Prop30
280
     1
102
RTVSPost2010PropOp30
 70
     0
102
RTVSPost2010Prop31
280
     0
102
RTVSPost2010PropOp31
 70
     0
102
RTVSPost2010Prop32
280
     0
102
RTVSPost2010PropOp32
 70
     0
102
RTVSPost2010Prop33
280
     0
102
RTVSPost2010PropOp33
 70
     0
102
RTVSPost2010Prop34
280
     0
102
RTVSPost2010PropOp34
 70
     0
102
RTVSPost2010Prop35
280
     0
102
RTVSPost2010PropOp35
 70
     0
102
RTVSPost2010Prop36
280
     0
102
RTVSPost2010PropOp36
 70
     0
102
RTVSPost2010Prop37
 90
       50
102
RTVSPost2010PropOp37
 70
     0
102
RTVSPost2010Prop38
140
0.0
102
RTVSPost2010PropOp38
 70
     0
102
RTVSPost2010Prop39
140
1.0
102
RTVSPost2010PropOp39
 70
     0
102
RTVSPost2010Prop40
 90
        0
102
RTVSPost2010PropOp40
 70
     0
102
RTVSPost2010Prop41ColorIndex
 90
       18
102
RTVSPost2010Prop41ColorRGB
 90
        0
102
RTVSPost2010PropOp41
 70
     0
102
RTVSPost2010Prop42
 90
       50
102
RTVSPost2010PropOp42
 70
     0
102
RTVSPost2010Prop43
 90
        3
102
RTVSPost2010PropOp43
 70
     0
102
RTVSPost2010Prop44ColorIndex
 90
        5
102
RTVSPost2010Prop44ColorRGB
 90
      255
102
RTVSPost2010PropOp44
 70
     0
102
RTVSPost2010Prop45
280
     0
102
RTVSPost2010PropOp45
 70
     0
102
RTVSPost2010Prop46
 90
       50
102
RTVSPost2010PropOp46
 70
     0
102
RTVSPost2010Prop47
 90
       50
102
RTVSPost2010PropOp47
 70
     0
102
RTVSPost2010Prop48
 90
       50
102
RTVSPost2010PropOp48
 70
     0
102
RTVSPost2010Prop49
280
     0
102
RTVSPost2010PropOp49
 70
     0
102
RTVSPost2010Prop50
 90
       50
102
RTVSPost2010PropOp50
 70
     0
102
RTVSPost2010Prop51ColorIndex
 90
      256
102
RTVSPost2010Prop51ColorRGB
 90
-16777216
102
RTVSPost2010PropOp51
 70
     0
102
RTVSPost2010Prop52
140
1.0
102
RTVSPost2010PropOp52
 70
     0
102
RTVSPost2010Prop53
 90
        2
102
RTVSPost2010PropOp53
 70
     0
102
RTVSPost2010Prop54
  1
strokes_ogs.tif
102
RTVSPost2010PropOp54
 70
     0
102
RTVSPost2010Prop55
280
     0
102
RTVSPost2010PropOp55
 70
     0
102
RTVSPost2010Prop56
140
1.0
102
RTVSPost2010PropOp56
 70
     0
102
RTVSPost2010Prop57
140
1.0
102
RTVSPost2010PropOp57
 70
     0
  0
XRECORD
  5
34E
102
{ACAD_REACTORS
330
34D
102
}
330
34D
100
AcDbXrecord
280
     1
102
RTVSPropertyOp0
 70
     1
102
RTVSPropertyOp1
 70
     1
102
RTVSPropertyOp2
 70
     1
102
RTVSPropertyOp3
 70
     1
102
RTVSPropertyOp4
 70
     1
102
RTVSPropertyOp5
 70
     1
102
RTVSPropertyOp6
 70
     1
102
RTVSPropertyOp7
 70
     1
102
RTVSPropertyOp8
 70
     1
102
RTVSPropertyOp9
 70
     1
102
RTVSPropertyOp10
 70
     1
102
RTVSPropertyOp11
 70
     1
102
RTVSPropertyOp12
 70
     1
102
RTVSPropertyOp13
 70
     1
102
RTVSPropertyOp14
 70
     1
102
RTVSPropertyOp15
 70
     1
102
RTVSPropertyOp16
 70
     1
102
RTVSPropertyOp17
 70
     1
102
RTVSPropertyOp18
 70
     1
102
RTVSPropertyOp19
 70
     1
102
RTVSPropertyOp20
 70
     1
102
RTVSPropertyOp21
 70
     1
102
RTVSPropertyOp22
 70
     1
102
RTVSPropertyOp23
 70
     1
102
RTVSPropertyOp24
 70
     1
102
RTVSPropertyOp25
 70
     1
102
RTVSPropertyOp26
 70
     1
102
RTVSPropertyOp27
 70
     1
102
RTVSPropertyOp28
 70
     1
102
RTVSPropertyOp29
 70
     1
102
RTVSPropertyOp30
 70
     1
102
RTVSPropertyOp31
 70
     1
102
RTVSPropertyOp32
 70
     1
102
RTVSPropertyOp33
 70
     1
102
RTVSPropertyOp34
 70
     1
102
RTVSPropertyOp35
 70
     1
102
RTVSPropertyOp36
 70
     1
102
RTVSPropertyOp37
 70
     1
102
RTVSPropertyOp38
 70
     1
102
RTVSPropertyOp39
 70
     1
102
RTVSPropertyOp40
 70
     1
102
RTVSPropertyOp41
 70
     1
102
RTVSPropertyOp42
 70
     1
102
RTVSPropertyOp43
 70
     1
102
RTVSPropertyOp44
 70
     1
102
RTVSPropertyOp45
 70
     1
102
RTVSPropertyOp46
 70
     1
102
RTVSPropertyOp47
 70
     1
102
RTVSPropertyOp48
 70
     1
102
RTVSPropertyOp49
 70
     1
102
RTVSPropertyOp50
 70
     1
102
RTVSPropertyOp51
 70
     0
102
RTVSPropertyOp52
 70
     0
102
RTVSPropertyOp53
 70
     1
102
RTVSPropertyOp54
 70
     1
102
RTVSPropertyOp55
 70
     1
102
RTVSPropertyOp56
 70
     1
102
RTVSPropertyOp57
 70
     1
102
RTVSPost2010Prop28
280
     0
102
RTVSPost2010PropOp28
 70
     1
102
RTVSPost2010Prop29
280
     1
102
RTVSPost2010PropOp29
 70
     1
102
RTVSPost2010Prop30
280
     1
102
RTVSPost2010PropOp30
 70
     1
102
RTVSPost2010Prop31
280
     0
102
RTVSPost2010PropOp31
 70
     1
102
RTVSPost2010Prop32
280
     0
102
RTVSPost2010PropOp32
 70
     1
102
RTVSPost2010Prop33
280
     0
102
RTVSPost2010PropOp33
 70
     1
102
RTVSPost2010Prop34
280
     0
102
RTVSPost2010PropOp34
 70
     1
102
RTVSPost2010Prop35
280
     0
102
RTVSPost2010PropOp35
 70
     1
102
RTVSPost2010Prop36
280
     0
102
RTVSPost2010PropOp36
 70
     1
102
RTVSPost2010Prop37
 90
       50
102
RTVSPost2010PropOp37
 70
     1
102
RTVSPost2010Prop38
140
0.0
102
RTVSPost2010PropOp38
 70
     1
102
RTVSPost2010Prop39
140
1.0
102
RTVSPost2010PropOp39
 70
     1
102
RTVSPost2010Prop40
 90
        0
102
RTVSPost2010PropOp40
 70
     1
102
RTVSPost2010Prop41ColorIndex
 90
       18
102
RTVSPost2010Prop41ColorRGB
 90
        0
102
RTVSPost2010PropOp41
 70
     1
102
RTVSPost2010Prop42
 90
       50
102
RTVSPost2010PropOp42
 70
     1
102
RTVSPost2010Prop43
 90
        3
102
RTVSPost2010PropOp43
 70
     1
102
RTVSPost2010Prop44ColorIndex
 90
        5
102
RTVSPost2010Prop44ColorRGB
 90
      255
102
RTVSPost2010PropOp44
 70
     1
102
RTVSPost2010Prop45
280
     0
102
RTVSPost2010PropOp45
 70
     1
102
RTVSPost2010Prop46
 90
       50
102
RTVSPost2010PropOp46
 70
     1
102
RTVSPost2010Prop47
 90
       50
102
RTVSPost2010PropOp47
 70
     1
102
RTVSPost2010Prop48
 90
       50
102
RTVSPost2010PropOp48
 70
     1
102
RTVSPost2010Prop49
280
     0
102
RTVSPost2010PropOp49
 70
     1
102
RTVSPost2010Prop50
 90
       50
102
RTVSPost2010PropOp50
 70
     1
102
RTVSPost2010Prop51ColorIndex
 90
      256
102
RTVSPost2010Prop51ColorRGB
 90
-16777216
102
RTVSPost2010PropOp51
 70
     0
102
RTVSPost2010Prop52
140
1.0
102
RTVSPost2010PropOp52
 70
     0
102
RTVSPost2010Prop53
 90
        2
102
RTVSPost2010PropOp53
 70
     1
102
RTVSPost2010Prop54
  1
strokes_ogs.tif
102
RTVSPost2010PropOp54
 70
     1
102
RTVSPost2010Prop55
280
     0
102
RTVSPost2010PropOp55
 70
     1
102
RTVSPost2010Prop56
140
1.0
102
RTVSPost2010PropOp56
 70
     1
102
RTVSPost2010Prop57
140
1.0
102
RTVSPost2010PropOp57
 70
     1
  0
XRECORD
  5
36C
102
{ACAD_REACTORS
330
36B
102
}
330
36B
100
AcDbXrecord
280
     1
102
RTVSPropertyOp0
 70
     1
102
RTVSPropertyOp1
 70
     1
102
RTVSPropertyOp2
 70
     1
102
RTVSPropertyOp3
 70
     1
102
RTVSPropertyOp4
 70
     1
102
RTVSPropertyOp5
 70
     1
102
RTVSPropertyOp6
 70
     1
102
RTVSPropertyOp7
 70
     1
102
RTVSPropertyOp8
 70
     1
102
RTVSPropertyOp9
 70
     1
102
RTVSPropertyOp10
 70
     1
102
RTVSPropertyOp11
 70
     1
102
RTVSPropertyOp12
 70
     1
102
RTVSPropertyOp13
 70
     1
102
RTVSPropertyOp14
 70
     1
102
RTVSPropertyOp15
 70
     1
102
RTVSPropertyOp16
 70
     1
102
RTVSPropertyOp17
 70
     1
102
RTVSPropertyOp18
 70
     1
102
RTVSPropertyOp19
 70
     1
102
RTVSPropertyOp20
 70
     1
102
RTVSPropertyOp21
 70
     1
102
RTVSPropertyOp22
 70
     1
102
RTVSPropertyOp23
 70
     1
102
RTVSPropertyOp24
 70
     1
102
RTVSPropertyOp25
 70
     1
102
RTVSPropertyOp26
 70
     1
102
RTVSPropertyOp27
 70
     1
102
RTVSPropertyOp28
 70
     1
102
RTVSPropertyOp29
 70
     1
102
RTVSPropertyOp30
 70
     1
102
RTVSPropertyOp31
 70
     1
102
RTVSPropertyOp32
 70
     1
102
RTVSPropertyOp33
 70
     1
102
RTVSPropertyOp34
 70
     1
102
RTVSPropertyOp35
 70
     1
102
RTVSPropertyOp36
 70
     1
102
RTVSPropertyOp37
 70
     1
102
RTVSPropertyOp38
 70
     1
102
RTVSPropertyOp39
 70
     1
102
RTVSPropertyOp40
 70
     1
102
RTVSPropertyOp41
 70
     1
102
RTVSPropertyOp42
 70
     1
102
RTVSPropertyOp43
 70
     1
102
RTVSPropertyOp44
 70
     1
102
RTVSPropertyOp45
 70
     1
102
RTVSPropertyOp46
 70
     1
102
RTVSPropertyOp47
 70
     1
102
RTVSPropertyOp48
 70
     1
102
RTVSPropertyOp49
 70
     1
102
RTVSPropertyOp50
 70
     1
102
RTVSPropertyOp51
 70
     0
102
RTVSPropertyOp52
 70
     0
102
RTVSPropertyOp53
 70
     1
102
RTVSPropertyOp54
 70
     1
102
RTVSPropertyOp55
 70
     1
102
RTVSPropertyOp56
 70
     1
102
RTVSPropertyOp57
 70
     1
102
RTVSPost2010Prop28
280
     0
102
RTVSPost2010PropOp28
 70
     1
102
RTVSPost2010Prop29
280
     1
102
RTVSPost2010PropOp29
 70
     1
102
RTVSPost2010Prop30
280
     1
102
RTVSPost2010PropOp30
 70
     1
102
RTVSPost2010Prop31
280
     0
102
RTVSPost2010PropOp31
 70
     1
102
RTVSPost2010Prop32
280
     0
102
RTVSPost2010PropOp32
 70
     1
102
RTVSPost2010Prop33
280
     0
102
RTVSPost2010PropOp33
 70
     1
102
RTVSPost2010Prop34
280
     0
102
RTVSPost2010PropOp34
 70
     1
102
RTVSPost2010Prop35
280
     0
102
RTVSPost2010PropOp35
 70
     1
102
RTVSPost2010Prop36
280
     0
102
RTVSPost2010PropOp36
 70
     1
102
RTVSPost2010Prop37
 90
       50
102
RTVSPost2010PropOp37
 70
     1
102
RTVSPost2010Prop38
140
0.0
102
RTVSPost2010PropOp38
 70
     1
102
RTVSPost2010Prop39
140
1.0
102
RTVSPost2010PropOp39
 70
     1
102
RTVSPost2010Prop40
 90
        0
102
RTVSPost2010PropOp40
 70
     1
102
RTVSPost2010Prop41ColorIndex
 90
       18
102
RTVSPost2010Prop41ColorRGB
 90
        0
102
RTVSPost2010PropOp41
 70
     1
102
RTVSPost2010Prop42
 90
       50
102
RTVSPost2010PropOp42
 70
     1
102
RTVSPost2010Prop43
 90
        3
102
RTVSPost2010PropOp43
 70
     1
102
RTVSPost2010Prop44ColorIndex
 90
        5
102
RTVSPost2010Prop44ColorRGB
 90
      255
102
RTVSPost2010PropOp44
 70
     1
102
RTVSPost2010Prop45
280
     0
102
RTVSPost2010PropOp45
 70
     1
102
RTVSPost2010Prop46
 90
       50
102
RTVSPost2010PropOp46
 70
     1
102
RTVSPost2010Prop47
 90
       50
102
RTVSPost2010PropOp47
 70
     1
102
RTVSPost2010Prop48
 90
       50
102
RTVSPost2010PropOp48
 70
     1
102
RTVSPost2010Prop49
280
     0
102
RTVSPost2010PropOp49
 70
     1
102
RTVSPost2010Prop50
 90
       50
102
RTVSPost2010PropOp50
 70
     1
102
RTVSPost2010Prop51ColorIndex
 90
      256
102
RTVSPost2010Prop51ColorRGB
 90
-16777216
102
RTVSPost2010PropOp51
 70
     0
102
RTVSPost2010Prop52
140
1.0
102
RTVSPost2010PropOp52
 70
     0
102
RTVSPost2010Prop53
 90
        2
102
RTVSPost2010PropOp53
 70
     1
102
RTVSPost2010Prop54
  1
strokes_ogs.tif
102
RTVSPost2010PropOp54
 70
     1
102
RTVSPost2010Prop55
280
     0
102
RTVSPost2010PropOp55
 70
     1
102
RTVSPost2010Prop56
140
1.0
102
RTVSPost2010PropOp56
 70
     1
102
RTVSPost2010Prop57
140
1.0
102
RTVSPost2010PropOp57
 70
     1
  0
XRECORD
  5
36A
102
{ACAD_REACTORS
330
369
102
}
330
369
100
AcDbXrecord
280
     1
102
RTVSPropertyOp0
 70
     1
102
RTVSPropertyOp1
 70
     1
102
RTVSPropertyOp2
 70
     1
102
RTVSPropertyOp3
 70
     1
102
RTVSPropertyOp4
 70
     1
102
RTVSPropertyOp5
 70
     1
102
RTVSPropertyOp6
 70
     1
102
RTVSPropertyOp7
 70
     1
102
RTVSPropertyOp8
 70
     1
102
RTVSPropertyOp9
 70
     1
102
RTVSPropertyOp10
 70
     1
102
RTVSPropertyOp11
 70
     1
102
RTVSPropertyOp12
 70
     1
102
RTVSPropertyOp13
 70
     1
102
RTVSPropertyOp14
 70
     1
102
RTVSPropertyOp15
 70
     1
102
RTVSPropertyOp16
 70
     1
102
RTVSPropertyOp17
 70
     1
102
RTVSPropertyOp18
 70
     1
102
RTVSPropertyOp19
 70
     1
102
RTVSPropertyOp20
 70
     1
102
RTVSPropertyOp21
 70
     1
102
RTVSPropertyOp22
 70
     1
102
RTVSPropertyOp23
 70
     1
102
RTVSPropertyOp24
 70
     1
102
RTVSPropertyOp25
 70
     1
102
RTVSPropertyOp26
 70
     1
102
RTVSPropertyOp27
 70
     1
102
RTVSPropertyOp28
 70
     1
102
RTVSPropertyOp29
 70
     1
102
RTVSPropertyOp30
 70
     1
102
RTVSPropertyOp31
 70
     1
102
RTVSPropertyOp32
 70
     1
102
RTVSPropertyOp33
 70
     1
102
RTVSPropertyOp34
 70
     1
102
RTVSPropertyOp35
 70
     1
102
RTVSPropertyOp36
 70
     1
102
RTVSPropertyOp37
 70
     1
102
RTVSPropertyOp38
 70
     1
102
RTVSPropertyOp39
 70
     1
102
RTVSPropertyOp40
 70
     1
102
RTVSPropertyOp41
 70
     1
102
RTVSPropertyOp42
 70
     1
102
RTVSPropertyOp43
 70
     1
102
RTVSPropertyOp44
 70
     1
102
RTVSPropertyOp45
 70
     1
102
RTVSPropertyOp46
 70
     1
102
RTVSPropertyOp47
 70
     1
102
RTVSPropertyOp48
 70
     1
102
RTVSPropertyOp49
 70
     1
102
RTVSPropertyOp50
 70
     1
102
RTVSPropertyOp51
 70
     0
102
RTVSPropertyOp52
 70
     0
102
RTVSPropertyOp53
 70
     1
102
RTVSPropertyOp54
 70
     1
102
RTVSPropertyOp55
 70
     1
102
RTVSPropertyOp56
 70
     1
102
RTVSPropertyOp57
 70
     1
102
RTVSPost2010Prop28
280
     0
102
RTVSPost2010PropOp28
 70
     1
102
RTVSPost2010Prop29
280
     1
102
RTVSPost2010PropOp29
 70
     1
102
RTVSPost2010Prop30
280
     1
102
RTVSPost2010PropOp30
 70
     1
102
RTVSPost2010Prop31
280
     0
102
RTVSPost2010PropOp31
 70
     1
102
RTVSPost2010Prop32
280
     0
102
RTVSPost2010PropOp32
 70
     1
102
RTVSPost2010Prop33
280
     0
102
RTVSPost2010PropOp33
 70
     1
102
RTVSPost2010Prop34
280
     0
102
RTVSPost2010PropOp34
 70
     1
102
RTVSPost2010Prop35
280
     0
102
RTVSPost2010PropOp35
 70
     1
102
RTVSPost2010Prop36
280
     0
102
RTVSPost2010PropOp36
 70
     1
102
RTVSPost2010Prop37
 90
       50
102
RTVSPost2010PropOp37
 70
     1
102
RTVSPost2010Prop38
140
0.0
102
RTVSPost2010PropOp38
 70
     1
102
RTVSPost2010Prop39
140
1.0
102
RTVSPost2010PropOp39
 70
     1
102
RTVSPost2010Prop40
 90
        0
102
RTVSPost2010PropOp40
 70
     1
102
RTVSPost2010Prop41ColorIndex
 90
       18
102
RTVSPost2010Prop41ColorRGB
 90
        0
102
RTVSPost2010PropOp41
 70
     1
102
RTVSPost2010Prop42
 90
       50
102
RTVSPost2010PropOp42
 70
     1
102
RTVSPost2010Prop43
 90
        3
102
RTVSPost2010PropOp43
 70
     1
102
RTVSPost2010Prop44ColorIndex
 90
        5
102
RTVSPost2010Prop44ColorRGB
 90
      255
102
RTVSPost2010PropOp44
 70
     1
102
RTVSPost2010Prop45
280
     0
102
RTVSPost2010PropOp45
 70
     1
102
RTVSPost2010Prop46
 90
       50
102
RTVSPost2010PropOp46
 70
     1
102
RTVSPost2010Prop47
 90
       50
102
RTVSPost2010PropOp47
 70
     1
102
RTVSPost2010Prop48
 90
       50
102
RTVSPost2010PropOp48
 70
     1
102
RTVSPost2010Prop49
280
     0
102
RTVSPost2010PropOp49
 70
     1
102
RTVSPost2010Prop50
 90
       50
102
RTVSPost2010PropOp50
 70
     1
102
RTVSPost2010Prop51ColorIndex
 90
      256
102
RTVSPost2010Prop51ColorRGB
 90
-16777216
102
RTVSPost2010PropOp51
 70
     0
102
RTVSPost2010Prop52
140
1.0
102
RTVSPost2010PropOp52
 70
     0
102
RTVSPost2010Prop53
 90
        2
102
RTVSPost2010PropOp53
 70
     1
102
RTVSPost2010Prop54
  1
strokes_ogs.tif
102
RTVSPost2010PropOp54
 70
     1
102
RTVSPost2010Prop55
280
     0
102
RTVSPost2010PropOp55
 70
     1
102
RTVSPost2010Prop56
140
1.0
102
RTVSPost2010PropOp56
 70
     1
102
RTVSPost2010Prop57
140
1.0
102
RTVSPost2010PropOp57
 70
     1
  0
XRECORD
  5
364
102
{ACAD_REACTORS
330
363
102
}
330
363
100
AcDbXrecord
280
     1
102
RTVSPropertyOp0
 70
     1
102
RTVSPropertyOp1
 70
     1
102
RTVSPropertyOp2
 70
     1
102
RTVSPropertyOp3
 70
     1
102
RTVSPropertyOp4
 70
     1
102
RTVSPropertyOp5
 70
     1
102
RTVSPropertyOp6
 70
     1
102
RTVSPropertyOp7
 70
     1
102
RTVSPropertyOp8
 70
     1
102
RTVSPropertyOp9
 70
     1
102
RTVSPropertyOp10
 70
     1
102
RTVSPropertyOp11
 70
     1
102
RTVSPropertyOp12
 70
     1
102
RTVSPropertyOp13
 70
     1
102
RTVSPropertyOp14
 70
     1
102
RTVSPropertyOp15
 70
     1
102
RTVSPropertyOp16
 70
     1
102
RTVSPropertyOp17
 70
     1
102
RTVSPropertyOp18
 70
     1
102
RTVSPropertyOp19
 70
     1
102
RTVSPropertyOp20
 70
     1
102
RTVSPropertyOp21
 70
     1
102
RTVSPropertyOp22
 70
     1
102
RTVSPropertyOp23
 70
     1
102
RTVSPropertyOp24
 70
     1
102
RTVSPropertyOp25
 70
     1
102
RTVSPropertyOp26
 70
     1
102
RTVSPropertyOp27
 70
     1
102
RTVSPropertyOp28
 70
     1
102
RTVSPropertyOp29
 70
     1
102
RTVSPropertyOp30
 70
     1
102
RTVSPropertyOp31
 70
     1
102
RTVSPropertyOp32
 70
     1
102
RTVSPropertyOp33
 70
     1
102
RTVSPropertyOp34
 70
     1
102
RTVSPropertyOp35
 70
     1
102
RTVSPropertyOp36
 70
     1
102
RTVSPropertyOp37
 70
     1
102
RTVSPropertyOp38
 70
     1
102
RTVSPropertyOp39
 70
     1
102
RTVSPropertyOp40
 70
     1
102
RTVSPropertyOp41
 70
     1
102
RTVSPropertyOp42
 70
     1
102
RTVSPropertyOp43
 70
     1
102
RTVSPropertyOp44
 70
     1
102
RTVSPropertyOp45
 70
     1
102
RTVSPropertyOp46
 70
     1
102
RTVSPropertyOp47
 70
     1
102
RTVSPropertyOp48
 70
     1
102
RTVSPropertyOp49
 70
     1
102
RTVSPropertyOp50
 70
     1
102
RTVSPropertyOp51
 70
     0
102
RTVSPropertyOp52
 70
     0
102
RTVSPropertyOp53
 70
     1
102
RTVSPropertyOp54
 70
     1
102
RTVSPropertyOp55
 70
     1
102
RTVSPropertyOp56
 70
     1
102
RTVSPropertyOp57
 70
     1
102
RTVSPost2010Prop28
280
     0
102
RTVSPost2010PropOp28
 70
     1
102
RTVSPost2010Prop29
280
     1
102
RTVSPost2010PropOp29
 70
     1
102
RTVSPost2010Prop30
280
     1
102
RTVSPost2010PropOp30
 70
     1
102
RTVSPost2010Prop31
280
     0
102
RTVSPost2010PropOp31
 70
     1
102
RTVSPost2010Prop32
280
     0
102
RTVSPost2010PropOp32
 70
     1
102
RTVSPost2010Prop33
280
     0
102
RTVSPost2010PropOp33
 70
     1
102
RTVSPost2010Prop34
280
     0
102
RTVSPost2010PropOp34
 70
     1
102
RTVSPost2010Prop35
280
     0
102
RTVSPost2010PropOp35
 70
     1
102
RTVSPost2010Prop36
280
     0
102
RTVSPost2010PropOp36
 70
     1
102
RTVSPost2010Prop37
 90
       50
102
RTVSPost2010PropOp37
 70
     1
102
RTVSPost2010Prop38
140
0.0
102
RTVSPost2010PropOp38
 70
     1
102
RTVSPost2010Prop39
140
1.0
102
RTVSPost2010PropOp39
 70
     1
102
RTVSPost2010Prop40
 90
        0
102
RTVSPost2010PropOp40
 70
     1
102
RTVSPost2010Prop41ColorIndex
 90
       18
102
RTVSPost2010Prop41ColorRGB
 90
        0
102
RTVSPost2010PropOp41
 70
     1
102
RTVSPost2010Prop42
 90
       50
102
RTVSPost2010PropOp42
 70
     1
102
RTVSPost2010Prop43
 90
        3
102
RTVSPost2010PropOp43
 70
     1
102
RTVSPost2010Prop44ColorIndex
 90
        5
102
RTVSPost2010Prop44ColorRGB
 90
      255
102
RTVSPost2010PropOp44
 70
     1
102
RTVSPost2010Prop45
280
     0
102
RTVSPost2010PropOp45
 70
     1
102
RTVSPost2010Prop46
 90
       50
102
RTVSPost2010PropOp46
 70
     1
102
RTVSPost2010Prop47
 90
       50
102
RTVSPost2010PropOp47
 70
     1
102
RTVSPost2010Prop48
 90
       50
102
RTVSPost2010PropOp48
 70
     1
102
RTVSPost2010Prop49
280
     0
102
RTVSPost2010PropOp49
 70
     1
102
RTVSPost2010Prop50
 90
       50
102
RTVSPost2010PropOp50
 70
     1
102
RTVSPost2010Prop51ColorIndex
 90
      256
102
RTVSPost2010Prop51ColorRGB
 90
-16777216
102
RTVSPost2010PropOp51
 70
     0
102
RTVSPost2010Prop52
140
1.0
102
RTVSPost2010PropOp52
 70
     0
102
RTVSPost2010Prop53
 90
        2
102
RTVSPost2010PropOp53
 70
     1
102
RTVSPost2010Prop54
  1
strokes_ogs.tif
102
RTVSPost2010PropOp54
 70
     1
102
RTVSPost2010Prop55
280
     0
102
RTVSPost2010PropOp55
 70
     1
102
RTVSPost2010Prop56
140
1.0
102
RTVSPost2010PropOp56
 70
     1
102
RTVSPost2010Prop57
140
1.0
102
RTVSPost2010PropOp57
 70
     1
  0
XRECORD
  5
366
102
{ACAD_REACTORS
330
365
102
}
330
365
100
AcDbXrecord
280
     1
102
RTVSPropertyOp0
 70
     1
102
RTVSPropertyOp1
 70
     1
102
RTVSPropertyOp2
 70
     1
102
RTVSPropertyOp3
 70
     1
102
RTVSPropertyOp4
 70
     1
102
RTVSPropertyOp5
 70
     1
102
RTVSPropertyOp6
 70
     1
102
RTVSPropertyOp7
 70
     1
102
RTVSPropertyOp8
 70
     1
102
RTVSPropertyOp9
 70
     1
102
RTVSPropertyOp10
 70
     1
102
RTVSPropertyOp11
 70
     1
102
RTVSPropertyOp12
 70
     1
102
RTVSPropertyOp13
 70
     1
102
RTVSPropertyOp14
 70
     1
102
RTVSPropertyOp15
 70
     1
102
RTVSPropertyOp16
 70
     1
102
RTVSPropertyOp17
 70
     1
102
RTVSPropertyOp18
 70
     1
102
RTVSPropertyOp19
 70
     1
102
RTVSPropertyOp20
 70
     1
102
RTVSPropertyOp21
 70
     1
102
RTVSPropertyOp22
 70
     1
102
RTVSPropertyOp23
 70
     1
102
RTVSPropertyOp24
 70
     1
102
RTVSPropertyOp25
 70
     1
102
RTVSPropertyOp26
 70
     1
102
RTVSPropertyOp27
 70
     1
102
RTVSPropertyOp28
 70
     1
102
RTVSPropertyOp29
 70
     1
102
RTVSPropertyOp30
 70
     1
102
RTVSPropertyOp31
 70
     1
102
RTVSPropertyOp32
 70
     1
102
RTVSPropertyOp33
 70
     1
102
RTVSPropertyOp34
 70
     1
102
RTVSPropertyOp35
 70
     1
102
RTVSPropertyOp36
 70
     1
102
RTVSPropertyOp37
 70
     1
102
RTVSPropertyOp38
 70
     1
102
RTVSPropertyOp39
 70
     1
102
RTVSPropertyOp40
 70
     1
102
RTVSPropertyOp41
 70
     1
102
RTVSPropertyOp42
 70
     1
102
RTVSPropertyOp43
 70
     1
102
RTVSPropertyOp44
 70
     1
102
RTVSPropertyOp45
 70
     1
102
RTVSPropertyOp46
 70
     1
102
RTVSPropertyOp47
 70
     1
102
RTVSPropertyOp48
 70
     1
102
RTVSPropertyOp49
 70
     1
102
RTVSPropertyOp50
 70
     1
102
RTVSPropertyOp51
 70
     0
102
RTVSPropertyOp52
 70
     0
102
RTVSPropertyOp53
 70
     1
102
RTVSPropertyOp54
 70
     1
102
RTVSPropertyOp55
 70
     1
102
RTVSPropertyOp56
 70
     1
102
RTVSPropertyOp57
 70
     1
102
RTVSPost2010Prop28
280
     0
102
RTVSPost2010PropOp28
 70
     1
102
RTVSPost2010Prop29
280
     1
102
RTVSPost2010PropOp29
 70
     1
102
RTVSPost2010Prop30
280
     1
102
RTVSPost2010PropOp30
 70
     1
102
RTVSPost2010Prop31
280
     0
102
RTVSPost2010PropOp31
 70
     1
102
RTVSPost2010Prop32
280
     0
102
RTVSPost2010PropOp32
 70
     1
102
RTVSPost2010Prop33
280
     0
102
RTVSPost2010PropOp33
 70
     1
102
RTVSPost2010Prop34
280
     0
102
RTVSPost2010PropOp34
 70
     1
102
RTVSPost2010Prop35
280
     0
102
RTVSPost2010PropOp35
 70
     1
102
RTVSPost2010Prop36
280
     0
102
RTVSPost2010PropOp36
 70
     1
102
RTVSPost2010Prop37
 90
       50
102
RTVSPost2010PropOp37
 70
     1
102
RTVSPost2010Prop38
140
0.0
102
RTVSPost2010PropOp38
 70
     1
102
RTVSPost2010Prop39
140
1.0
102
RTVSPost2010PropOp39
 70
     1
102
RTVSPost2010Prop40
 90
        0
102
RTVSPost2010PropOp40
 70
     1
102
RTVSPost2010Prop41ColorIndex
 90
       18
102
RTVSPost2010Prop41ColorRGB
 90
        0
102
RTVSPost2010PropOp41
 70
     1
102
RTVSPost2010Prop42
 90
       50
102
RTVSPost2010PropOp42
 70
     1
102
RTVSPost2010Prop43
 90
        3
102
RTVSPost2010PropOp43
 70
     1
102
RTVSPost2010Prop44ColorIndex
 90
        5
102
RTVSPost2010Prop44ColorRGB
 90
      255
102
RTVSPost2010PropOp44
 70
     1
102
RTVSPost2010Prop45
280
     0
102
RTVSPost2010PropOp45
 70
     1
102
RTVSPost2010Prop46
 90
       50
102
RTVSPost2010PropOp46
 70
     1
102
RTVSPost2010Prop47
 90
       50
102
RTVSPost2010PropOp47
 70
     1
102
RTVSPost2010Prop48
 90
       50
102
RTVSPost2010PropOp48
 70
     1
102
RTVSPost2010Prop49
280
     0
102
RTVSPost2010PropOp49
 70
     1
102
RTVSPost2010Prop50
 90
       50
102
RTVSPost2010PropOp50
 70
     1
102
RTVSPost2010Prop51ColorIndex
 90
      256
102
RTVSPost2010Prop51ColorRGB
 90
-16777216
102
RTVSPost2010PropOp51
 70
     0
102
RTVSPost2010Prop52
140
1.0
102
RTVSPost2010PropOp52
 70
     0
102
RTVSPost2010Prop53
 90
        2
102
RTVSPost2010PropOp53
 70
     1
102
RTVSPost2010Prop54
  1
strokes_ogs.tif
102
RTVSPost2010PropOp54
 70
     1
102
RTVSPost2010Prop55
280
     0
102
RTVSPost2010PropOp55
 70
     1
102
RTVSPost2010Prop56
140
1.0
102
RTVSPost2010PropOp56
 70
     1
102
RTVSPost2010Prop57
140
1.0
102
RTVSPost2010PropOp57
 70
     1
  0
XRECORD
  5
356
102
{ACAD_REACTORS
330
355
102
}
330
355
100
AcDbXrecord
280
     1
102
RTVSPropertyOp0
 70
     1
102
RTVSPropertyOp1
 70
     1
102
RTVSPropertyOp2
 70
     1
102
RTVSPropertyOp3
 70
     1
102
RTVSPropertyOp4
 70
     1
102
RTVSPropertyOp5
 70
     1
102
RTVSPropertyOp6
 70
     1
102
RTVSPropertyOp7
 70
     1
102
RTVSPropertyOp8
 70
     1
102
RTVSPropertyOp9
 70
     1
102
RTVSPropertyOp10
 70
     1
102
RTVSPropertyOp11
 70
     1
102
RTVSPropertyOp12
 70
     1
102
RTVSPropertyOp13
 70
     1
102
RTVSPropertyOp14
 70
     1
102
RTVSPropertyOp15
 70
     1
102
RTVSPropertyOp16
 70
     1
102
RTVSPropertyOp17
 70
     1
102
RTVSPropertyOp18
 70
     1
102
RTVSPropertyOp19
 70
     1
102
RTVSPropertyOp20
 70
     1
102
RTVSPropertyOp21
 70
     1
102
RTVSPropertyOp22
 70
     1
102
RTVSPropertyOp23
 70
     1
102
RTVSPropertyOp24
 70
     1
102
RTVSPropertyOp25
 70
     1
102
RTVSPropertyOp26
 70
     1
102
RTVSPropertyOp27
 70
     1
102
RTVSPropertyOp28
 70
     1
102
RTVSPropertyOp29
 70
     1
102
RTVSPropertyOp30
 70
     1
102
RTVSPropertyOp31
 70
     1
102
RTVSPropertyOp32
 70
     1
102
RTVSPropertyOp33
 70
     1
102
RTVSPropertyOp34
 70
     1
102
RTVSPropertyOp35
 70
     1
102
RTVSPropertyOp36
 70
     1
102
RTVSPropertyOp37
 70
     1
102
RTVSPropertyOp38
 70
     1
102
RTVSPropertyOp39
 70
     1
102
RTVSPropertyOp40
 70
     1
102
RTVSPropertyOp41
 70
     1
102
RTVSPropertyOp42
 70
     1
102
RTVSPropertyOp43
 70
     1
102
RTVSPropertyOp44
 70
     1
102
RTVSPropertyOp45
 70
     1
102
RTVSPropertyOp46
 70
     1
102
RTVSPropertyOp47
 70
     1
102
RTVSPropertyOp48
 70
     1
102
RTVSPropertyOp49
 70
     1
102
RTVSPropertyOp50
 70
     1
102
RTVSPropertyOp51
 70
     0
102
RTVSPropertyOp52
 70
     0
102
RTVSPropertyOp53
 70
     1
102
RTVSPropertyOp54
 70
     1
102
RTVSPropertyOp55
 70
     1
102
RTVSPropertyOp56
 70
     1
102
RTVSPropertyOp57
 70
     1
102
RTVSPost2010Prop28
280
     0
102
RTVSPost2010PropOp28
 70
     1
102
RTVSPost2010Prop29
280
     1
102
RTVSPost2010PropOp29
 70
     1
102
RTVSPost2010Prop30
280
     1
102
RTVSPost2010PropOp30
 70
     1
102
RTVSPost2010Prop31
280
     0
102
RTVSPost2010PropOp31
 70
     1
102
RTVSPost2010Prop32
280
     0
102
RTVSPost2010PropOp32
 70
     1
102
RTVSPost2010Prop33
280
     0
102
RTVSPost2010PropOp33
 70
     1
102
RTVSPost2010Prop34
280
     0
102
RTVSPost2010PropOp34
 70
     1
102
RTVSPost2010Prop35
280
     0
102
RTVSPost2010PropOp35
 70
     1
102
RTVSPost2010Prop36
280
     0
102
RTVSPost2010PropOp36
 70
     1
102
RTVSPost2010Prop37
 90
       50
102
RTVSPost2010PropOp37
 70
     1
102
RTVSPost2010Prop38
140
0.0
102
RTVSPost2010PropOp38
 70
     1
102
RTVSPost2010Prop39
140
1.0
102
RTVSPost2010PropOp39
 70
     1
102
RTVSPost2010Prop40
 90
        0
102
RTVSPost2010PropOp40
 70
     1
102
RTVSPost2010Prop41ColorIndex
 90
       18
102
RTVSPost2010Prop41ColorRGB
 90
        0
102
RTVSPost2010PropOp41
 70
     1
102
RTVSPost2010Prop42
 90
       50
102
RTVSPost2010PropOp42
 70
     1
102
RTVSPost2010Prop43
 90
        3
102
RTVSPost2010PropOp43
 70
     1
102
RTVSPost2010Prop44ColorIndex
 90
        5
102
RTVSPost2010Prop44ColorRGB
 90
      255
102
RTVSPost2010PropOp44
 70
     1
102
RTVSPost2010Prop45
280
     0
102
RTVSPost2010PropOp45
 70
     1
102
RTVSPost2010Prop46
 90
       50
102
RTVSPost2010PropOp46
 70
     1
102
RTVSPost2010Prop47
 90
       50
102
RTVSPost2010PropOp47
 70
     1
102
RTVSPost2010Prop48
 90
       50
102
RTVSPost2010PropOp48
 70
     1
102
RTVSPost2010Prop49
280
     0
102
RTVSPost2010PropOp49
 70
     1
102
RTVSPost2010Prop50
 90
       50
102
RTVSPost2010PropOp50
 70
     1
102
RTVSPost2010Prop51ColorIndex
 90
      256
102
RTVSPost2010Prop51ColorRGB
 90
-16777216
102
RTVSPost2010PropOp51
 70
     0
102
RTVSPost2010Prop52
140
1.0
102
RTVSPost2010PropOp52
 70
     0
102
RTVSPost2010Prop53
 90
        2
102
RTVSPost2010PropOp53
 70
     1
102
RTVSPost2010Prop54
  1
strokes_ogs.tif
102
RTVSPost2010PropOp54
 70
     1
102
RTVSPost2010Prop55
280
     0
102
RTVSPost2010PropOp55
 70
     1
102
RTVSPost2010Prop56
140
1.0
102
RTVSPost2010PropOp56
 70
     1
102
RTVSPost2010Prop57
140
1.0
102
RTVSPost2010PropOp57
 70
     1
  0
XRECORD
  5
348
102
{ACAD_REACTORS
330
347
102
}
330
347
100
AcDbXrecord
280
     1
102
RTVSPropertyOp0
 70
     1
102
RTVSPropertyOp1
 70
     1
102
RTVSPropertyOp2
 70
     1
102
RTVSPropertyOp3
 70
     1
102
RTVSPropertyOp4
 70
     1
102
RTVSPropertyOp5
 70
     1
102
RTVSPropertyOp6
 70
     1
102
RTVSPropertyOp7
 70
     1
102
RTVSPropertyOp8
 70
     1
102
RTVSPropertyOp9
 70
     1
102
RTVSPropertyOp10
 70
     1
102
RTVSPropertyOp11
 70
     1
102
RTVSPropertyOp12
 70
     1
102
RTVSPropertyOp13
 70
     1
102
RTVSPropertyOp14
 70
     1
102
RTVSPropertyOp15
 70
     1
102
RTVSPropertyOp16
 70
     1
102
RTVSPropertyOp17
 70
     1
102
RTVSPropertyOp18
 70
     1
102
RTVSPropertyOp19
 70
     1
102
RTVSPropertyOp20
 70
     1
102
RTVSPropertyOp21
 70
     1
102
RTVSPropertyOp22
 70
     1
102
RTVSPropertyOp23
 70
     1
102
RTVSPropertyOp24
 70
     1
102
RTVSPropertyOp25
 70
     1
102
RTVSPropertyOp26
 70
     1
102
RTVSPropertyOp27
 70
     1
102
RTVSPropertyOp28
 70
     1
102
RTVSPropertyOp29
 70
     1
102
RTVSPropertyOp30
 70
     1
102
RTVSPropertyOp31
 70
     1
102
RTVSPropertyOp32
 70
     1
102
RTVSPropertyOp33
 70
     1
102
RTVSPropertyOp34
 70
     1
102
RTVSPropertyOp35
 70
     1
102
RTVSPropertyOp36
 70
     1
102
RTVSPropertyOp37
 70
     1
102
RTVSPropertyOp38
 70
     1
102
RTVSPropertyOp39
 70
     1
102
RTVSPropertyOp40
 70
     1
102
RTVSPropertyOp41
 70
     1
102
RTVSPropertyOp42
 70
     1
102
RTVSPropertyOp43
 70
     1
102
RTVSPropertyOp44
 70
     1
102
RTVSPropertyOp45
 70
     1
102
RTVSPropertyOp46
 70
     1
102
RTVSPropertyOp47
 70
     1
102
RTVSPropertyOp48
 70
     1
102
RTVSPropertyOp49
 70
     1
102
RTVSPropertyOp50
 70
     1
102
RTVSPropertyOp51
 70
     0
102
RTVSPropertyOp52
 70
     0
102
RTVSPropertyOp53
 70
     1
102
RTVSPropertyOp54
 70
     1
102
RTVSPropertyOp55
 70
     1
102
RTVSPropertyOp56
 70
     1
102
RTVSPropertyOp57
 70
     1
102
RTVSPost2010Prop28
280
     0
102
RTVSPost2010PropOp28
 70
     1
102
RTVSPost2010Prop29
280
     1
102
RTVSPost2010PropOp29
 70
     1
102
RTVSPost2010Prop30
280
     1
102
RTVSPost2010PropOp30
 70
     1
102
RTVSPost2010Prop31
280
     0
102
RTVSPost2010PropOp31
 70
     1
102
RTVSPost2010Prop32
280
     0
102
RTVSPost2010PropOp32
 70
     1
102
RTVSPost2010Prop33
280
     0
102
RTVSPost2010PropOp33
 70
     1
102
RTVSPost2010Prop34
280
     0
102
RTVSPost2010PropOp34
 70
     1
102
RTVSPost2010Prop35
280
     0
102
RTVSPost2010PropOp35
 70
     1
102
RTVSPost2010Prop36
280
     0
102
RTVSPost2010PropOp36
 70
     1
102
RTVSPost2010Prop37
 90
       50
102
RTVSPost2010PropOp37
 70
     1
102
RTVSPost2010Prop38
140
0.0
102
RTVSPost2010PropOp38
 70
     1
102
RTVSPost2010Prop39
140
1.0
102
RTVSPost2010PropOp39
 70
     1
102
RTVSPost2010Prop40
 90
        0
102
RTVSPost2010PropOp40
 70
     1
102
RTVSPost2010Prop41ColorIndex
 90
       18
102
RTVSPost2010Prop41ColorRGB
 90
        0
102
RTVSPost2010PropOp41
 70
     1
102
RTVSPost2010Prop42
 90
       50
102
RTVSPost2010PropOp42
 70
     1
102
RTVSPost2010Prop43
 90
        3
102
RTVSPost2010PropOp43
 70
     1
102
RTVSPost2010Prop44ColorIndex
 90
        5
102
RTVSPost2010Prop44ColorRGB
 90
      255
102
RTVSPost2010PropOp44
 70
     1
102
RTVSPost2010Prop45
280
     0
102
RTVSPost2010PropOp45
 70
     1
102
RTVSPost2010Prop46
 90
       50
102
RTVSPost2010PropOp46
 70
     1
102
RTVSPost2010Prop47
 90
       50
102
RTVSPost2010PropOp47
 70
     1
102
RTVSPost2010Prop48
 90
       50
102
RTVSPost2010PropOp48
 70
     1
102
RTVSPost2010Prop49
280
     0
102
RTVSPost2010PropOp49
 70
     1
102
RTVSPost2010Prop50
 90
       50
102
RTVSPost2010PropOp50
 70
     1
102
RTVSPost2010Prop51ColorIndex
 90
      256
102
RTVSPost2010Prop51ColorRGB
 90
-16777216
102
RTVSPost2010PropOp51
 70
     0
102
RTVSPost2010Prop52
140
1.0
102
RTVSPost2010PropOp52
 70
     0
102
RTVSPost2010Prop53
 90
        2
102
RTVSPost2010PropOp53
 70
     1
102
RTVSPost2010Prop54
  1
strokes_ogs.tif
102
RTVSPost2010PropOp54
 70
     1
102
RTVSPost2010Prop55
280
     0
102
RTVSPost2010PropOp55
 70
     1
102
RTVSPost2010Prop56
140
1.0
102
RTVSPost2010PropOp56
 70
     1
102
RTVSPost2010Prop57
140
1.0
102
RTVSPost2010PropOp57
 70
     1
  0
XRECORD
  5
368
102
{ACAD_REACTORS
330
367
102
}
330
367
100
AcDbXrecord
280
     1
102
RTVSPropertyOp0
 70
     1
102
RTVSPropertyOp1
 70
     1
102
RTVSPropertyOp2
 70
     1
102
RTVSPropertyOp3
 70
     1
102
RTVSPropertyOp4
 70
     1
102
RTVSPropertyOp5
 70
     1
102
RTVSPropertyOp6
 70
     1
102
RTVSPropertyOp7
 70
     1
102
RTVSPropertyOp8
 70
     1
102
RTVSPropertyOp9
 70
     1
102
RTVSPropertyOp10
 70
     1
102
RTVSPropertyOp11
 70
     1
102
RTVSPropertyOp12
 70
     1
102
RTVSPropertyOp13
 70
     1
102
RTVSPropertyOp14
 70
     1
102
RTVSPropertyOp15
 70
     1
102
RTVSPropertyOp16
 70
     1
102
RTVSPropertyOp17
 70
     1
102
RTVSPropertyOp18
 70
     1
102
RTVSPropertyOp19
 70
     1
102
RTVSPropertyOp20
 70
     1
102
RTVSPropertyOp21
 70
     1
102
RTVSPropertyOp22
 70
     1
102
RTVSPropertyOp23
 70
     1
102
RTVSPropertyOp24
 70
     1
102
RTVSPropertyOp25
 70
     1
102
RTVSPropertyOp26
 70
     1
102
RTVSPropertyOp27
 70
     1
102
RTVSPropertyOp28
 70
     1
102
RTVSPropertyOp29
 70
     1
102
RTVSPropertyOp30
 70
     1
102
RTVSPropertyOp31
 70
     1
102
RTVSPropertyOp32
 70
     1
102
RTVSPropertyOp33
 70
     1
102
RTVSPropertyOp34
 70
     1
102
RTVSPropertyOp35
 70
     1
102
RTVSPropertyOp36
 70
     1
102
RTVSPropertyOp37
 70
     1
102
RTVSPropertyOp38
 70
     1
102
RTVSPropertyOp39
 70
     1
102
RTVSPropertyOp40
 70
     1
102
RTVSPropertyOp41
 70
     1
102
RTVSPropertyOp42
 70
     1
102
RTVSPropertyOp43
 70
     1
102
RTVSPropertyOp44
 70
     1
102
RTVSPropertyOp45
 70
     1
102
RTVSPropertyOp46
 70
     1
102
RTVSPropertyOp47
 70
     1
102
RTVSPropertyOp48
 70
     1
102
RTVSPropertyOp49
 70
     1
102
RTVSPropertyOp50
 70
     1
102
RTVSPropertyOp51
 70
     0
102
RTVSPropertyOp52
 70
     0
102
RTVSPropertyOp53
 70
     1
102
RTVSPropertyOp54
 70
     1
102
RTVSPropertyOp55
 70
     1
102
RTVSPropertyOp56
 70
     1
102
RTVSPropertyOp57
 70
     1
102
RTVSPost2010Prop28
280
     0
102
RTVSPost2010PropOp28
 70
     1
102
RTVSPost2010Prop29
280
     1
102
RTVSPost2010PropOp29
 70
     1
102
RTVSPost2010Prop30
280
     1
102
RTVSPost2010PropOp30
 70
     1
102
RTVSPost2010Prop31
280
     0
102
RTVSPost2010PropOp31
 70
     1
102
RTVSPost2010Prop32
280
     0
102
RTVSPost2010PropOp32
 70
     1
102
RTVSPost2010Prop33
280
     0
102
RTVSPost2010PropOp33
 70
     1
102
RTVSPost2010Prop34
280
     0
102
RTVSPost2010PropOp34
 70
     1
102
RTVSPost2010Prop35
280
     0
102
RTVSPost2010PropOp35
 70
     1
102
RTVSPost2010Prop36
280
     0
102
RTVSPost2010PropOp36
 70
     1
102
RTVSPost2010Prop37
 90
       50
102
RTVSPost2010PropOp37
 70
     1
102
RTVSPost2010Prop38
140
0.0
102
RTVSPost2010PropOp38
 70
     1
102
RTVSPost2010Prop39
140
1.0
102
RTVSPost2010PropOp39
 70
     1
102
RTVSPost2010Prop40
 90
        0
102
RTVSPost2010PropOp40
 70
     1
102
RTVSPost2010Prop41ColorIndex
 90
       18
102
RTVSPost2010Prop41ColorRGB
 90
        0
102
RTVSPost2010PropOp41
 70
     1
102
RTVSPost2010Prop42
 90
       50
102
RTVSPost2010PropOp42
 70
     1
102
RTVSPost2010Prop43
 90
        3
102
RTVSPost2010PropOp43
 70
     1
102
RTVSPost2010Prop44ColorIndex
 90
        5
102
RTVSPost2010Prop44ColorRGB
 90
      255
102
RTVSPost2010PropOp44
 70
     1
102
RTVSPost2010Prop45
280
     0
102
RTVSPost2010PropOp45
 70
     1
102
RTVSPost2010Prop46
 90
       50
102
RTVSPost2010PropOp46
 70
     1
102
RTVSPost2010Prop47
 90
       50
102
RTVSPost2010PropOp47
 70
     1
102
RTVSPost2010Prop48
 90
       50
102
RTVSPost2010PropOp48
 70
     1
102
RTVSPost2010Prop49
280
     0
102
RTVSPost2010PropOp49
 70
     1
102
RTVSPost2010Prop50
 90
       50
102
RTVSPost2010PropOp50
 70
     1
102
RTVSPost2010Prop51ColorIndex
 90
      256
102
RTVSPost2010Prop51ColorRGB
 90
-16777216
102
RTVSPost2010PropOp51
 70
     0
102
RTVSPost2010Prop52
140
1.0
102
RTVSPost2010PropOp52
 70
     0
102
RTVSPost2010Prop53
 90
        2
102
RTVSPost2010PropOp53
 70
     1
102
RTVSPost2010Prop54
  1
strokes_ogs.tif
102
RTVSPost2010PropOp54
 70
     1
102
RTVSPost2010Prop55
280
     0
102
RTVSPost2010PropOp55
 70
     1
102
RTVSPost2010Prop56
140
1.0
102
RTVSPost2010PropOp56
 70
     1
102
RTVSPost2010Prop57
140
1.0
102
RTVSPost2010PropOp57
 70
     1
  0
ENDSEC
  0
EOF
