  0
SECTION
  2
HEADER
  9
$ACADVER
  1
AC1015
  9
$ACADMAINTVER
 70
     6
  9
$DWGCODEPAGE
  3
ANSI_932
  9
$INSBASE
 10
0.0
 20
0.0
 30
0.0
  9
$EXTMIN
 10
-120.944431687203
 20
-34.3366486287765
 30
0.0
  9
$EXTMAX
 10
82.2261955126917
 20
128.94228816854
 30
0.0
  9
$LIMMIN
 10
0.0
 20
0.0
  9
$LIMMAX
 10
12.0
 20
9.0
  9
$ORTHOMODE
 70
     0
  9
$REGENMODE
 70
     1
  9
$FILLMODE
 70
     1
  9
$QTEXTMODE
 70
     0
  9
$MIRRTEXT
 70
     1
  9
$LTSCALE
 40
1.0
  9
$ATTMODE
 70
     1
  9
$TEXTSIZE
 40
0.2
  9
$TRACEWID
 40
0.05
  9
$TEXTSTYLE
  7
Standard
  9
$CLAYER
  8
0
  9
$CELTYPE
  6
ByLayer
  9
$CECOLOR
 62
   256
  9
$CELTSCALE
 40
1.0
  9
$DISPSILH
 70
     0
  9
$DIMSCALE
 40
1.0
  9
$DIMASZ
 40
0.18
  9
$DIMEXO
 40
0.0625
  9
$DIMDLI
 40
0.38
  9
$DIMRND
 40
0.0
  9
$DIMDLE
 40
0.0
  9
$DIMEXE
 40
0.18
  9
$DIMTP
 40
0.0
  9
$DIMTM
 40
0.0
  9
$DIMTXT
 40
0.18
  9
$DIMCEN
 40
0.09
  9
$DIMTSZ
 40
0.0
  9
$DIMTOL
 70
     0
  9
$DIMLIM
 70
     0
  9
$DIMTIH
 70
     1
  9
$DIMTOH
 70
     1
  9
$DIMSE1
 70
     0
  9
$DIMSE2
 70
     0
  9
$DIMTAD
 70
     0
  9
$DIMZIN
 70
     0
  9
$DIMBLK
  1

  9
$DIMASO
 70
     1
  9
$DIMSHO
 70
     1
  9
$DIMPOST
  1

  9
$DIMAPOST
  1

  9
$DIMALT
 70
     0
  9
$DIMALTD
 70
     2
  9
$DIMALTF
 40
25.4
  9
$DIMLFAC
 40
1.0
  9
$DIMTOFL
 70
     0
  9
$DIMTVP
 40
0.0
  9
$DIMTIX
 70
     0
  9
$DIMSOXD
 70
     0
  9
$DIMSAH
 70
     0
  9
$DIMBLK1
  1

  9
$DIMBLK2
  1

  9
$DIMSTYLE
  2
Standard
  9
$DIMCLRD
 70
     0
  9
$DIMCLRE
 70
     0
  9
$DIMCLRT
 70
     0
  9
$DIMTFAC
 40
1.0
  9
$DIMGAP
 40
0.09
  9
$DIMJUST
 70
     0
  9
$DIMSD1
 70
     0
  9
$DIMSD2
 70
     0
  9
$DIMTOLJ
 70
     1
  9
$DIMTZIN
 70
     0
  9
$DIMALTZ
 70
     0
  9
$DIMALTTZ
 70
     0
  9
$DIMUPT
 70
     0
  9
$DIMDEC
 70
     4
  9
$DIMTDEC
 70
     4
  9
$DIMALTU
 70
     2
  9
$DIMALTTD
 70
     2
  9
$DIMTXSTY
  7
Standard
  9
$DIMAUNIT
 70
     0
  9
$DIMADEC
 70
     0
  9
$DIMALTRND
 40
0.0
  9
$DIMAZIN
 70
     0
  9
$DIMDSEP
 70
    46
  9
$DIMATFIT
 70
     3
  9
$DIMFRAC
 70
     0
  9
$DIMLDRBLK
  1

  9
$DIMLUNIT
 70
     2
  9
$DIMLWD
 70
    -2
  9
$DIMLWE
 70
    -2
  9
$DIMTMOVE
 70
     0
  9
$LUNITS
 70
     2
  9
$LUPREC
 70
     4
  9
$SKETCHINC
 40
0.1
  9
$FILLETRAD
 40
0.5
  9
$AUNITS
 70
     0
  9
$AUPREC
 70
     0
  9
$MENU
  1
.
  9
$ELEVATION
 40
0.0
  9
$PELEVATION
 40
0.0
  9
$THICKNESS
 40
0.0
  9
$LIMCHECK
 70
     0
  9
$CHAMFERA
 40
0.0
  9
$CHAMFERB
 40
0.0
  9
$CHAMFERC
 40
0.0
  9
$CHAMFERD
 40
0.0
  9
$SKPOLY
 70
     0
  9
$TDCREATE
 40
2458080.573282234
  9
$TDUCREATE
 40
2458080.198282234
  9
$TDUPDATE
 40
2458080.573283762
  9
$TDUUPDATE
 40
2458080.198283762
  9
$TDINDWG
 40
0.0000000116
  9
$TDUSRTIMER
 40
0.0000000116
  9
$USRTIMER
 70
     1
  9
$ANGBASE
 50
0.0
  9
$ANGDIR
 70
     0
  9
$PDMODE
 70
     0
  9
$PDSIZE
 40
0.0
  9
$PLINEWID
 40
0.0
  9
$SPLFRAME
 70
     0
  9
$SPLINETYPE
 70
     6
  9
$SPLINESEGS
 70
     8
  9
$HANDSEED
  5
39A
  9
$SURFTAB1
 70
     6
  9
$SURFTAB2
 70
     6
  9
$SURFTYPE
 70
     6
  9
$SURFU
 70
     6
  9
$SURFV
 70
     6
  9
$UCSBASE
  2

  9
$UCSNAME
  2

  9
$UCSORG
 10
0.0
 20
0.0
 30
0.0
  9
$UCSXDIR
 10
1.0
 20
0.0
 30
0.0
  9
$UCSYDIR
 10
0.0
 20
1.0
 30
0.0
  9
$UCSORTHOREF
  2

  9
$UCSORTHOVIEW
 70
     0
  9
$UCSORGTOP
 10
0.0
 20
0.0
 30
0.0
  9
$UCSORGBOTTOM
 10
0.0
 20
0.0
 30
0.0
  9
$UCSORGLEFT
 10
0.0
 20
0.0
 30
0.0
  9
$UCSORGRIGHT
 10
0.0
 20
0.0
 30
0.0
  9
$UCSORGFRONT
 10
0.0
 20
0.0
 30
0.0
  9
$UCSORGBACK
 10
0.0
 20
0.0
 30
0.0
  9
$PUCSBASE
  2

  9
$PUCSNAME
  2

  9
$PUCSORG
 10
0.0
 20
0.0
 30
0.0
  9
$PUCSXDIR
 10
1.0
 20
0.0
 30
0.0
  9
$PUCSYDIR
 10
0.0
 20
1.0
 30
0.0
  9
$PUCSORTHOREF
  2

  9
$PUCSORTHOVIEW
 70
     0
  9
$PUCSORGTOP
 10
0.0
 20
0.0
 30
0.0
  9
$PUCSORGBOTTOM
 10
0.0
 20
0.0
 30
0.0
  9
$PUCSORGLEFT
 10
0.0
 20
0.0
 30
0.0
  9
$PUCSORGRIGHT
 10
0.0
 20
0.0
 30
0.0
  9
$PUCSORGFRONT
 10
0.0
 20
0.0
 30
0.0
  9
$PUCSORGBACK
 10
0.0
 20
0.0
 30
0.0
  9
$USERI1
 70
     0
  9
$USERI2
 70
     0
  9
$USERI3
 70
     0
  9
$USERI4
 70
     0
  9
$USERI5
 70
     0
  9
$USERR1
 40
19.0
  9
$USERR2
 40
0.0
  9
$USERR3
 40
0.0
  9
$USERR4
 40
0.0
  9
$USERR5
 40
0.0
  9
$WORLDVIEW
 70
     1
  9
$SHADEDGE
 70
     3
  9
$SHADEDIF
 70
    70
  9
$TILEMODE
 70
     1
  9
$MAXACTVP
 70
    64
  9
$PINSBASE
 10
0.0
 20
0.0
 30
0.0
  9
$PLIMCHECK
 70
     0
  9
$PEXTMIN
 10
1.00000000000000E+20
 20
1.00000000000000E+20
 30
1.00000000000000E+20
  9
$PEXTMAX
 10
-1.00000000000000E+20
 20
-1.00000000000000E+20
 30
-1.00000000000000E+20
  9
$PLIMMIN
 10
0.0
 20
0.0
  9
$PLIMMAX
 10
12.0
 20
9.0
  9
$UNITMODE
 70
     0
  9
$VISRETAIN
 70
     1
  9
$PLINEGEN
 70
     0
  9
$PSLTSCALE
 70
     1
  9
$TREEDEPTH
 70
  3020
  9
$CMLSTYLE
  2
Standard
  9
$CMLJUST
 70
     0
  9
$CMLSCALE
 40
1.0
  9
$PROXYGRAPHICS
 70
     1
  9
$MEASUREMENT
 70
     1
  9
$CELWEIGHT
370
    -1
  9
$ENDCAPS
280
     0
  9
$JOINSTYLE
280
     0
  9
$LWDISPLAY
290
     0
  9
$INSUNITS
 70
     4
  9
$HYPERLINKBASE
  1

  9
$STYLESHEET
  1

  9
$XEDIT
290
     1
  9
$CEPSNTYPE
380
     0
  9
$PSTYLEMODE
290
     1
  9
$FINGERPRINTGUID
  2
{B327B420-ED0D-41AA-A293-85DF70809706}
  9
$VERSIONGUID
  2
{FAEB1C32-E019-11D5-929B-00C0DF256EC4}
  9
$EXTNAMES
290
     1
  9
$PSVPSCALE
 40
0.0
  9
$OLESTARTUP
290
     0
  0
ENDSEC
  0
SECTION
  2
CLASSES
  0
CLASS
  1
ACDBDICTIONARYWDFLT
  2
AcDbDictionaryWithDefault
  3
ObjectDBX Classes
 90
        0
280
     0
281
     0
  0
CLASS
  1
VISUALSTYLE
  2
AcDbVisualStyle
  3
ObjectDBX Classes
 90
     4095
280
     0
281
     0
  0
CLASS
  1
MATERIAL
  2
AcDbMaterial
  3
ObjectDBX Classes
 90
     1153
280
     0
281
     0
  0
CLASS
  1
SCALE
  2
AcDbScale
  3
ObjectDBX Classes
 90
     1153
280
     0
281
     0
  0
CLASS
  1
SUN
  2
AcDbSun
  3
SCENEOE
 90
     1153
280
     0
281
     0
  0
CLASS
  1
DICTIONARYVAR
  2
AcDbDictionaryVar
  3
ObjectDBX Classes
 90
        0
280
     0
281
     0
  0
CLASS
  1
ACDBPLACEHOLDER
  2
AcDbPlaceHolder
  3
ObjectDBX Classes
 90
        0
280
     0
281
     0
  0
CLASS
  1
LAYOUT
  2
AcDbLayout
  3
ObjectDBX Classes
 90
        0
280
     0
281
     0
  0
ENDSEC
  0
SECTION
  2
TABLES
  0
TABLE
  2
VPORT
  5
8
330
0
100
AcDbSymbolTable
 70
     1
  0
VPORT
  5
29
330
8
100
AcDbSymbolTableRecord
100
AcDbViewportTableRecord
  2
*Active
 70
     0
 10
0.0
 20
0.0
 11
1.0
 21
1.0
 12
-19.35911808725564
 22
47.30281976988174
 13
0.0
 23
0.0
 14
0.5
 24
0.5
 15
0.5
 25
0.5
 16
0.0
 26
0.0
 36
1.0
 17
0.0
 27
0.0
 37
0.0
 40
179.6068304770481
 41
1.60267857142857
 42
50.0
 43
0.0
 44
0.0
 50
0.0
 51
0.0
 71
     0
 72
   100
 73
     1
 74
     3
 75
     0
 76
     0
 77
     0
 78
     0
281
     0
 65
     1
110
0.0
120
0.0
130
0.0
111
1.0
121
0.0
131
0.0
112
0.0
122
1.0
132
0.0
 79
     0
146
0.0
  0
ENDTAB
  0
TABLE
  2
LTYPE
  5
5
330
0
100
AcDbSymbolTable
 70
     8
  0
LTYPE
  5
14
330
5
100
AcDbSymbolTableRecord
100
AcDbLinetypeTableRecord
  2
ByBlock
 70
     0
  3

 72
    65
 73
     0
 40
0.0
  0
LTYPE
  5
15
330
5
100
AcDbSymbolTableRecord
100
AcDbLinetypeTableRecord
  2
ByLayer
 70
     0
  3

 72
    65
 73
     0
 40
0.0
  0
LTYPE
  5
16
330
5
100
AcDbSymbolTableRecord
100
AcDbLinetypeTableRecord
  2
Continuous
 70
     0
  3
Solid line
 72
    65
 73
     0
 40
0.0
  0
LTYPE
  5
6A
330
5
100
AcDbSymbolTableRecord
100
AcDbLinetypeTableRecord
  2
DASHED
 70
     0
  3
Dashed
 72
    65
 73
     2
 40
15.0
 49
7.0
 74
     0
 49
-8.0
 74
     0
  0
LTYPE
  5
6B
330
5
100
AcDbSymbolTableRecord
100
AcDbLinetypeTableRecord
  2
DOTTED
 70
     0
  3
Dotted
 72
    65
 73
     2
 40
1.0
 49
0.0
 74
     0
 49
-1.0
 74
     0
  0
LTYPE
  5
6C
330
5
100
AcDbSymbolTableRecord
100
AcDbLinetypeTableRecord
  2
DOT_CENTER
 70
     0
  3
Dot_Center
 72
    65
 73
     4
 40
14.0
 49
12.0
 74
     0
 49
-1.0
 74
     0
 49
0.0
 74
     0
 49
-1.0
 74
     0
  0
LTYPE
  5
6D
330
5
100
AcDbSymbolTableRecord
100
AcDbLinetypeTableRecord
  2
LONG_DASHED
 70
     0
  3
Long_Dashed
 72
    65
 73
     2
 40
15.0
 49
10.0
 74
     0
 49
-5.0
 74
     0
  0
LTYPE
  5
6E
330
5
100
AcDbSymbolTableRecord
100
AcDbLinetypeTableRecord
  2
DASH_CENTER
 70
     0
  3
Dash_Center
 72
    65
 73
     4
 40
14.0
 49
11.0
 74
     0
 49
-1.0
 74
     0
 49
1.0
 74
     0
 49
-1.0
 74
     0
  0
LTYPE
  5
6F
330
5
100
AcDbSymbolTableRecord
100
AcDbLinetypeTableRecord
  2
PHANTOM
 70
     0
  3
Phantom
 72
    65
 73
     6
 40
13.0
 49
10.0
 74
     0
 49
-1.0
 74
     0
 49
0.0
 74
     0
 49
-1.0
 74
     0
 49
0.0
 74
     0
 49
-1.0
 74
     0
  0
LTYPE
  5
70
330
5
100
AcDbSymbolTableRecord
100
AcDbLinetypeTableRecord
  2
CENTER_DASH_DASH
 70
     0
  3
Center_Dash_Dash
 72
    65
 73
     6
 40
14.0
 49
9.0
 74
     0
 49
-1.0
 74
     0
 49
1.0
 74
     0
 49
-1.0
 74
     0
 49
1.0
 74
     0
 49
-1.0
 74
     0
  0
ENDTAB
  0
TABLE
  2
LAYER
  5
2
330
0
100
AcDbSymbolTable
 70
     2
  0
LAYER
  5
10
330
2
100
AcDbSymbolTableRecord
100
AcDbLayerTableRecord
  2
0
 70
     0
 62
     7
  6
Continuous
370
    -3
390
F
  0
LAYER
  5
71
330
2
100
AcDbSymbolTableRecord
100
AcDbLayerTableRecord
  2
1
 70
     0
 62
     7
  6
Continuous
370
    -3
390
F
  0
ENDTAB
  0
TABLE
  2
STYLE
  5
3
330
0
100
AcDbSymbolTable
 70
     1
  0
STYLE
  5
11
330
3
100
AcDbSymbolTableRecord
100
AcDbTextStyleTableRecord
  2
Standard
 70
     0
 40
0.0
 41
1.0
 50
0.0
 71
     0
 42
0.2
  3
txt
  4

  0
ENDTAB
  0
TABLE
  2
VIEW
  5
6
330
0
100
AcDbSymbolTable
 70
     0
  0
ENDTAB
  0
TABLE
  2
UCS
  5
7
330
0
100
AcDbSymbolTable
 70
     0
  0
ENDTAB
  0
TABLE
  2
APPID
  5
9
330
0
100
AcDbSymbolTable
 70
     1
  0
APPID
  5
12
330
9
100
AcDbSymbolTableRecord
100
AcDbRegAppTableRecord
  2
ACAD
 70
     0
  0
ENDTAB
  0
TABLE
  2
DIMSTYLE
  5
A
330
0
100
AcDbSymbolTable
 70
     1
100
AcDbDimStyleTable
  0
DIMSTYLE
105
27
330
A
100
AcDbSymbolTableRecord
100
AcDbDimStyleTableRecord
  2
Standard
 70
     0
178
     0
340
11
  0
ENDTAB
  0
TABLE
  2
BLOCK_RECORD
  5
1
330
0
100
AcDbSymbolTable
 70
     1
  0
BLOCK_RECORD
  5
1F
330
1
100
AcDbSymbolTableRecord
100
AcDbBlockTableRecord
  2
*Model_Space
340
22
  0
BLOCK_RECORD
  5
1B
330
1
100
AcDbSymbolTableRecord
100
AcDbBlockTableRecord
  2
*Paper_Space
340
1E
  0
BLOCK_RECORD
  5
23
330
1
100
AcDbSymbolTableRecord
100
AcDbBlockTableRecord
  2
*Paper_Space0
340
26
  0
ENDTAB
  0
ENDSEC
  0
SECTION
  2
BLOCKS
  0
BLOCK
  5
20
330
1F
100
AcDbEntity
  8
0
100
AcDbBlockBegin
  2
*Model_Space
 70
     0
 10
0.0
 20
0.0
 30
0.0
  3
*Model_Space
  1
*Model_Space
  0
ENDBLK
  5
21
330
1F
100
AcDbEntity
  8
0
100
AcDbBlockEnd
  0
BLOCK
  5
1C
330
1B
100
AcDbEntity
 67
     1
  8
0
100
AcDbBlockBegin
  2
*Paper_Space
 70
     0
 10
0.0
 20
0.0
 30
0.0
  3
*Paper_Space
  1
*Paper_Space
  0
ENDBLK
  5
1D
330
1B
100
AcDbEntity
 67
     1
  8
0
100
AcDbBlockEnd
  0
BLOCK
  5
24
330
23
100
AcDbEntity
  8
0
100
AcDbBlockBegin
  2
*Paper_Space0
 70
     0
 10
0.0
 20
0.0
 30
0.0
  3
*Paper_Space0
  1
*Paper_Space0
  0
ENDBLK
  5
25
330
23
100
AcDbEntity
  8
0
100
AcDbBlockEnd
  0
ENDSEC
  0
SECTION
  2
ENTITIES
  0
LINE
  5
72
330
1F
100
AcDbEntity
  8
1
  6
DOT_CENTER
 62
     3
100
AcDbLine
 10
-120.944431687203
 20
0.0
 30
0.0
 11
-59.498976304915
 21
0.00000000000002
 31
0.0
  0
LINE
  5
73
330
1F
100
AcDbEntity
  8
0
  6
Continuous
 62
     3
100
AcDbLine
 10
-118.489731148824
 20
-18.0000000000001
 30
0.0
 11
-95.412331637075
 21
-18.0
 31
0.0
  0
LINE
  5
74
330
1F
100
AcDbEntity
  8
1
  6
Continuous
 62
     3
100
AcDbLine
 10
-58.2600210408156
 20
0.00000000000001
 30
0.0
 11
-57.9444316872033
 21
0.00000000000003
 31
0.0
  0
LINE
  5
75
330
1F
100
AcDbEntity
  8
1
  6
DOT_CENTER
 62
     3
100
AcDbLine
 10
-42.0
 20
87.5
 30
0.0
 11
32.3335900821562
 21
87.4999999999999
 31
0.0
  0
LINE
  5
76
330
1F
100
AcDbEntity
  8
0
  6
Continuous
 62
     3
100
AcDbLine
 10
-106.944431687203
 20
-17.9699377702342
 30
0.0
 11
-106.944431687203
 21
-13.4419663351496
 31
0.0
  0
LINE
  5
77
330
1F
100
AcDbEntity
  8
0
  6
Continuous
 62
     3
100
AcDbLine
 10
-118.489731148824
 20
-13.4419663351496
 30
0.0
 11
-106.944431687203
 21
-13.4419663351496
 31
0.0
  0
LINE
  5
78
330
1F
100
AcDbEntity
  8
0
  6
Continuous
 62
     3
100
AcDbLine
 10
-118.489731148824
 20
-11.971363374516
 30
0.0
 11
-106.944431687203
 21
-11.9713633745161
 31
0.0
  0
LINE
  5
79
330
1F
100
AcDbEntity
  8
1
  6
Continuous
 62
     3
100
AcDbLine
 10
-118.489731148824
 20
-11.971363374516
 30
0.0
 11
-118.489731148824
 21
-13.4419663351496
 31
0.0
  0
LINE
  5
7A
330
1F
100
AcDbEntity
  8
0
  6
Continuous
 62
     3
100
AcDbLine
 10
-118.489731148824
 20
-1.03987332589702
 30
0.0
 11
-106.944431687203
 21
-1.0398733258971
 31
0.0
  0
LINE
  5
7B
330
1F
100
AcDbEntity
  8
0
  6
Continuous
 62
     3
100
AcDbLine
 10
-118.489731148824
 20
1.03987332589705
 30
0.0
 11
-106.944431687203
 21
1.03987332589699
 31
0.0
  0
LINE
  5
7C
330
1F
100
AcDbEntity
  8
1
  6
Continuous
 62
     3
100
AcDbLine
 10
-118.489731148824
 20
1.03987332589705
 30
0.0
 11
-118.489731148824
 21
-1.03987332589702
 31
0.0
  0
LINE
  5
7D
330
1F
100
AcDbEntity
  8
0
  6
Continuous
 62
     3
100
AcDbLine
 10
-118.489731148824
 20
11.9713633745161
 30
0.0
 11
-106.944431687203
 21
11.971363374516
 31
0.0
  0
LINE
  5
7E
330
1F
100
AcDbEntity
  8
1
  6
Continuous
 62
     3
100
AcDbLine
 10
-118.489731148824
 20
13.4419663351495
 30
0.0
 11
-118.489731148824
 21
11.9713633745161
 31
0.0
  0
LINE
  5
7F
330
1F
100
AcDbEntity
  8
0
  6
Continuous
 62
     3
100
AcDbLine
 10
-118.489731148824
 20
13.4419663351495
 30
0.0
 11
-106.944431687203
 21
13.4419663351496
 31
0.0
  0
LINE
  5
80
330
1F
100
AcDbEntity
  8
1
  6
Continuous
 62
     3
100
AcDbLine
 10
7.69774100772065
 20
0.0
 30
0.0
 11
8.99601667761962
 21
0.0
 31
0.0
  0
LINE
  5
81
330
1F
100
AcDbEntity
  8
0
  6
Continuous
 62
     3
100
AcDbLine
 10
8.30000000000004
 20
-0.01250987585712
 30
0.0
 11
8.30000000000004
 21
-22.012509875857
 31
0.0
  0
LINE
  5
82
330
1F
100
AcDbEntity
  8
0
  6
Continuous
 62
     3
100
AcDbLine
 10
9.30000000000004
 20
18.6778158836458
 30
0.0
 11
9.30000000000004
 21
-23.012509875857
 31
0.0
  0
LINE
  5
83
330
1F
100
AcDbEntity
  8
0
  6
Continuous
 62
     3
100
AcDbLine
 10
7.69774100772065
 20
0.0
 30
0.0
 11
4.7782265110983
 21
30.9874901241429
 31
0.0
  0
LINE
  5
84
330
1F
100
AcDbEntity
  8
0
  6
Continuous
 62
     3
100
AcDbLine
 10
-7.69774100772062
 20
0.0
 30
0.0
 11
7.69774100772065
 21
0.0
 31
0.0
  0
LINE
  5
85
330
1F
100
AcDbEntity
  8
0
  6
Continuous
 62
     3
100
AcDbLine
 10
-9.62959266029878
 20
0.0
 30
0.0
 11
-7.69774100772062
 21
0.0
 31
0.0
  0
LINE
  5
86
330
1F
100
AcDbEntity
  8
0
  6
Continuous
 62
     3
100
AcDbLine
 10
-7.69774100772062
 20
0.0
 30
0.0
 11
-4.7782265110983
 21
30.9874901241429
 31
0.0
  0
LINE
  5
87
330
1F
100
AcDbEntity
  8
0
  6
Continuous
 62
     3
100
AcDbLine
 10
-22.0
 20
16.9999999999999
 30
0.0
 11
-22.0
 21
-16.9999999999999
 31
0.0
  0
LINE
  5
88
330
1F
100
AcDbEntity
  8
0
  6
Continuous
 62
     3
100
AcDbLine
 10
-18.0
 20
20.9999999999999
 30
0.0
 11
-18.0
 21
-20.9999999999999
 31
0.0
  0
LINE
  5
89
330
1F
100
AcDbEntity
  8
1
  6
DASH_CENTER
 62
     3
100
AcDbLine
 10
39.7227705098717
 20
1.03987332589708
 30
0.0
 11
39.7227705098717
 21
-1.03987332589702
 31
0.0
  0
LINE
  5
8A
330
1F
100
AcDbEntity
  8
1
  6
Continuous
 62
     3
100
AcDbLine
 10
28.3
 20
-1.03987332589702
 30
0.0
 11
28.3
 21
-19.0
 31
0.0
  0
LINE
  5
8B
330
1F
100
AcDbEntity
  8
1
  6
Continuous
 62
     3
100
AcDbLine
 10
28.3
 20
-1.03987332589702
 30
0.0
 11
39.7227705098717
 21
-1.03987332589702
 31
0.0
  0
LINE
  5
8C
330
1F
100
AcDbEntity
  8
1
  6
Continuous
 62
     3
100
AcDbLine
 10
28.3
 20
1.03987332589708
 30
0.0
 11
28.3
 21
-1.03987332589702
 31
0.0
  0
LINE
  5
8D
330
1F
100
AcDbEntity
  8
1
  6
Continuous
 62
     3
100
AcDbLine
 10
28.3
 20
1.03987332589708
 30
0.0
 11
39.7227705098717
 21
1.03987332589708
 31
0.0
  0
LINE
  5
8E
330
1F
100
AcDbEntity
  8
0
  6
Continuous
 62
     3
100
AcDbLine
 10
-26.0
 20
-17.9699377702341
 30
0.0
 11
-26.0
 21
-13.4419663351497
 31
0.0
  0
LINE
  5
8F
330
1F
100
AcDbEntity
  8
0
  6
Continuous
 62
     3
100
AcDbLine
 10
-37.5452994616207
 20
-13.4419663351496
 30
0.0
 11
-26.0
 21
-13.4419663351497
 31
0.0
  0
LINE
  5
90
330
1F
100
AcDbEntity
  8
1
  6
Continuous
 62
     3
100
AcDbLine
 10
-37.5452994616207
 20
-11.971363374516
 30
0.0
 11
-37.5452994616207
 21
-13.4419663351496
 31
0.0
  0
LINE
  5
91
330
1F
100
AcDbEntity
  8
0
  6
Continuous
 62
     3
100
AcDbLine
 10
-37.5452994616207
 20
-11.971363374516
 30
0.0
 11
-26.0
 21
-11.9713633745159
 31
0.0
  0
LINE
  5
92
330
1F
100
AcDbEntity
  8
0
  6
Continuous
 62
     3
100
AcDbLine
 10
-37.5452994616207
 20
-11.971363374516
 30
0.0
 11
-26.0
 21
-11.9713633745159
 31
0.0
  0
LINE
  5
93
330
1F
100
AcDbEntity
  8
0
  6
Continuous
 62
     3
100
AcDbLine
 10
-37.5452994616207
 20
-1.03987332589702
 30
0.0
 11
-26.0
 21
-1.03987332589702
 31
0.0
  0
LINE
  5
94
330
1F
100
AcDbEntity
  8
0
  6
Continuous
 62
     3
100
AcDbLine
 10
-37.5452994616207
 20
1.03987332589708
 30
0.0
 11
-26.0
 21
1.03987332589708
 31
0.0
  0
LINE
  5
95
330
1F
100
AcDbEntity
  8
1
  6
Continuous
 62
     3
100
AcDbLine
 10
-37.5452994616207
 20
1.03987332589708
 30
0.0
 11
-37.5452994616207
 21
-1.03987332589702
 31
0.0
  0
LINE
  5
96
330
1F
100
AcDbEntity
  8
0
  6
Continuous
 62
     3
100
AcDbLine
 10
-37.5452994616207
 20
-1.03987332589702
 30
0.0
 11
-26.0
 21
-1.03987332589702
 31
0.0
  0
LINE
  5
97
330
1F
100
AcDbEntity
  8
1
  6
Continuous
 62
     3
100
AcDbLine
 10
-37.5452994616207
 20
13.4419663351495
 30
0.0
 11
-37.5452994616207
 21
11.9713633745161
 31
0.0
  0
LINE
  5
98
330
1F
100
AcDbEntity
  8
0
  6
Continuous
 62
     3
100
AcDbLine
 10
-37.5452994616207
 20
11.9713633745161
 30
0.0
 11
-26.0
 21
11.9713633745161
 31
0.0
  0
LINE
  5
99
330
1F
100
AcDbEntity
  8
0
  6
Continuous
 62
     3
100
AcDbLine
 10
-37.5452994616207
 20
13.4419663351495
 30
0.0
 11
-26.0
 21
13.4419663351496
 31
0.0
  0
LINE
  5
9A
330
1F
100
AcDbEntity
  8
1
  6
Continuous
 62
     3
100
AcDbLine
 10
28.3
 20
-13.4419663351496
 30
0.0
 11
39.7227705098717
 21
-13.4419663351496
 31
0.0
  0
LINE
  5
9B
330
1F
100
AcDbEntity
  8
1
  6
Continuous
 62
     3
100
AcDbLine
 10
39.7227705098717
 20
-11.9713633745161
 30
0.0
 11
39.7227705098717
 21
-13.4419663351496
 31
0.0
  0
LINE
  5
9C
330
1F
100
AcDbEntity
  8
1
  6
Continuous
 62
     3
100
AcDbLine
 10
28.3
 20
-13.4419663351496
 30
0.0
 11
39.7227705098717
 21
-13.4419663351496
 31
0.0
  0
LINE
  5
9D
330
1F
100
AcDbEntity
  8
1
  6
Continuous
 62
     3
100
AcDbLine
 10
28.3
 20
-11.9713633745161
 30
0.0
 11
39.7227705098717
 21
-11.9713633745161
 31
0.0
  0
LINE
  5
9E
330
1F
100
AcDbEntity
  8
1
  6
Continuous
 62
     3
100
AcDbLine
 10
39.7227705098717
 20
13.4419663351496
 30
0.0
 11
39.7227705098717
 21
11.9713633745161
 31
0.0
  0
LINE
  5
9F
330
1F
100
AcDbEntity
  8
1
  6
Continuous
 62
     3
100
AcDbLine
 10
28.3
 20
11.9713633745161
 30
0.0
 11
39.7227705098717
 21
11.9713633745161
 31
0.0
  0
LINE
  5
A0
330
1F
100
AcDbEntity
  8
1
  6
Continuous
 62
     3
100
AcDbLine
 10
28.3
 20
13.4419663351496
 30
0.0
 11
39.7227705098717
 21
13.4419663351496
 31
0.0
  0
LINE
  5
A1
330
1F
100
AcDbEntity
  8
0
  6
Continuous
 62
     3
100
AcDbLine
 10
-68.9730683126873
 20
-13.4419663351496
 30
0.0
 11
-79.9045583613063
 21
-17.9699377702341
 31
0.0
  0
LINE
  5
A2
330
1F
100
AcDbEntity
  8
0
  6
Continuous
 62
     3
100
AcDbLine
 10
-92.9157950617193
 20
13.4419663351496
 30
0.0
 11
-81.9843050131004
 21
17.9699377702341
 31
0.0
  0
LINE
  5
A3
330
1F
100
AcDbEntity
  8
0
  6
Continuous
 62
     3
100
AcDbLine
 10
-79.9045583613062
 20
17.9699377702341
 30
0.0
 11
-68.9730683126873
 21
13.4419663351496
 31
0.0
  0
LINE
  5
A4
330
1F
100
AcDbEntity
  8
0
  6
Continuous
 62
     3
100
AcDbLine
 10
-62.9744939169692
 20
-1.03987332589708
 30
0.0
 11
-67.5024653520537
 21
-11.971363374516
 31
0.0
  0
LINE
  5
A5
330
1F
100
AcDbEntity
  8
0
  6
Continuous
 62
     3
100
AcDbLine
 10
-67.5024653520537
 20
11.971363374516
 30
0.0
 11
-62.9744939169692
 21
1.03987332589702
 31
0.0
  0
LINE
  5
A6
330
1F
100
AcDbEntity
  8
0
  6
Continuous
 62
     3
100
AcDbLine
 10
-81.9843050131004
 20
-17.9699377702341
 30
0.0
 11
-92.9157950617193
 21
-13.4419663351496
 31
0.0
  0
LINE
  5
A7
330
1F
100
AcDbEntity
  8
0
  6
Continuous
 62
     3
100
AcDbLine
 10
-94.386398022353
 20
-11.9713633745161
 30
0.0
 11
-98.9143694574374
 21
-1.03987332589708
 31
0.0
  0
LINE
  5
A8
330
1F
100
AcDbEntity
  8
0
  6
Continuous
 62
     3
100
AcDbLine
 10
-98.9143694574374
 20
1.03987332589708
 30
0.0
 11
-94.386398022353
 21
11.971363374516
 31
0.0
  0
LINE
  5
A9
330
1F
100
AcDbEntity
  8
1
  6
Continuous
 62
     3
100
AcDbLine
 10
28.3
 20
19.0
 30
0.0
 11
28.3
 21
1.03987332589708
 31
0.0
  0
LINE
  5
AA
330
1F
100
AcDbEntity
  8
1
  6
Continuous
 62
     3
100
AcDbLine
 10
29.3
 20
-18.0
 30
0.0
 11
39.7227705098717
 21
-18.0
 31
0.0
  0
LINE
  5
AB
330
1F
100
AcDbEntity
  8
1
  6
Continuous
 62
     3
100
AcDbLine
 10
29.3
 20
18.0
 30
0.0
 11
39.7227705098717
 21
18.0
 31
0.0
  0
LINE
  5
AC
330
1F
100
AcDbEntity
  8
1
  6
Continuous
 62
     3
100
AcDbLine
 10
28.3
 20
-19.0
 30
0.0
 11
28.3
 21
-23.0
 31
0.0
  0
LINE
  5
AD
330
1F
100
AcDbEntity
  8
1
  6
Continuous
 62
     3
100
AcDbLine
 10
28.3
 20
23.0000000000001
 30
0.0
 11
28.3
 21
19.0
 31
0.0
  0
LINE
  5
AE
330
1F
100
AcDbEntity
  8
1
  6
Continuous
 62
     3
100
AcDbLine
 10
27.3
 20
24.0000000000001
 30
0.0
 11
24.3
 21
24.0
 31
0.0
  0
LINE
  5
AF
330
1F
100
AcDbEntity
  8
1
  6
Continuous
 62
     3
100
AcDbLine
 10
40.2999999999999
 20
13.4
 30
0.0
 11
40.2999999999999
 21
-13.4
 31
0.0
  0
LINE
  5
B0
330
1F
100
AcDbEntity
  8
1
  6
Continuous
 62
     3
100
AcDbLine
 10
24.3
 20
24.0
 30
0.0
 11
24.3
 21
-24.0
 31
0.0
  0
LINE
  5
B1
330
1F
100
AcDbEntity
  8
1
  6
Continuous
 62
     3
100
AcDbLine
 10
24.3
 20
-24.0
 30
0.0
 11
27.3
 21
-24.0
 31
0.0
  0
LINE
  5
B2
330
1F
100
AcDbEntity
  8
1
  6
Continuous
 62
     3
100
AcDbLine
 10
40.2999999999999
 20
13.4
 30
0.0
 11
40.2999999999999
 21
17.0002091954708
 31
0.0
  0
LINE
  5
B3
330
1F
100
AcDbEntity
  8
1
  6
Continuous
 62
     3
100
AcDbLine
 10
40.2999999999999
 20
-13.4
 30
0.0
 11
40.2999999999999
 21
-17.0002091954708
 31
0.0
  0
LINE
  5
B4
330
1F
100
AcDbEntity
  8
1
  6
Continuous
 62
     3
100
AcDbLine
 10
40.2999999999999
 20
17.0002091954708
 30
0.0
 11
39.7227705098717
 21
18.0
 31
0.0
  0
LINE
  5
B5
330
1F
100
AcDbEntity
  8
1
  6
Continuous
 62
     3
100
AcDbLine
 10
40.2999999999999
 20
-17.0002091954708
 30
0.0
 11
39.7227705098717
 21
-18.0
 31
0.0
  0
LINE
  5
B6
330
1F
100
AcDbEntity
  8
1
  6
Continuous
 62
     3
100
AcDbLine
 10
65.5495032905468
 20
86.2749999999999
 30
0.0
 11
65.1085032905468
 21
86.4999999999999
 31
0.0
  0
LINE
  5
B7
330
1F
100
AcDbEntity
  8
1
  6
Continuous
 62
     3
100
AcDbLine
 10
65.8645032905468
 20
85.8249999999999
 30
0.0
 11
65.5495032905468
 21
86.2749999999999
 31
0.0
  0
LINE
  5
B8
330
1F
100
AcDbEntity
  8
1
  6
Continuous
 62
     3
100
AcDbLine
 10
65.9275032905468
 20
84.9999999999999
 30
0.0
 11
65.8645032905468
 21
85.8249999999999
 31
0.0
  0
LINE
  5
B9
330
1F
100
AcDbEntity
  8
1
  6
Continuous
 62
     3
100
AcDbLine
 10
65.8645032905468
 20
84.1749999999999
 30
0.0
 11
65.9275032905468
 21
84.9999999999999
 31
0.0
  0
LINE
  5
BA
330
1F
100
AcDbEntity
  8
1
  6
Continuous
 62
     3
100
AcDbLine
 10
65.5495032905468
 20
83.7249999999999
 30
0.0
 11
65.8645032905468
 21
84.1749999999999
 31
0.0
  0
LINE
  5
BB
330
1F
100
AcDbEntity
  8
1
  6
Continuous
 62
     3
100
AcDbLine
 10
65.1085032905468
 20
83.4999999999999
 30
0.0
 11
65.5495032905468
 21
83.7249999999999
 31
0.0
  0
LINE
  5
BC
330
1F
100
AcDbEntity
  8
1
  6
Continuous
 62
     3
100
AcDbLine
 10
64.6675032905468
 20
83.7249999999999
 30
0.0
 11
65.1085032905468
 21
83.4999999999999
 31
0.0
  0
LINE
  5
BD
330
1F
100
AcDbEntity
  8
1
  6
Continuous
 62
     3
100
AcDbLine
 10
64.4155032905468
 20
84.1749999999999
 30
0.0
 11
64.6675032905468
 21
83.7249999999999
 31
0.0
  0
LINE
  5
BE
330
1F
100
AcDbEntity
  8
1
  6
Continuous
 62
     3
100
AcDbLine
 10
64.2895032905468
 20
84.9999999999999
 30
0.0
 11
64.4155032905468
 21
84.1749999999999
 31
0.0
  0
LINE
  5
BF
330
1F
100
AcDbEntity
  8
1
  6
Continuous
 62
     3
100
AcDbLine
 10
64.4155032905468
 20
85.8249999999999
 30
0.0
 11
64.2895032905468
 21
84.9999999999999
 31
0.0
  0
LINE
  5
C0
330
1F
100
AcDbEntity
  8
1
  6
Continuous
 62
     3
100
AcDbLine
 10
64.6675032905468
 20
86.2749999999999
 30
0.0
 11
64.4155032905468
 21
85.8249999999999
 31
0.0
  0
LINE
  5
C1
330
1F
100
AcDbEntity
  8
1
  6
Continuous
 62
     3
100
AcDbLine
 10
65.1085032905468
 20
86.4999999999999
 30
0.0
 11
64.6675032905468
 21
86.2749999999999
 31
0.0
  0
LINE
  5
C2
330
1F
100
AcDbEntity
  8
1
  6
Continuous
 62
     3
100
AcDbLine
 10
62.5885032905468
 20
86.2749999999999
 30
0.0
 11
62.1475032905468
 21
86.4999999999999
 31
0.0
  0
LINE
  5
C3
330
1F
100
AcDbEntity
  8
1
  6
Continuous
 62
     3
100
AcDbLine
 10
62.9035032905468
 20
85.8249999999999
 30
0.0
 11
62.5885032905468
 21
86.2749999999999
 31
0.0
  0
LINE
  5
C4
330
1F
100
AcDbEntity
  8
1
  6
Continuous
 62
     3
100
AcDbLine
 10
62.9665032905468
 20
84.9999999999999
 30
0.0
 11
62.9035032905468
 21
85.8249999999999
 31
0.0
  0
LINE
  5
C5
330
1F
100
AcDbEntity
  8
1
  6
Continuous
 62
     3
100
AcDbLine
 10
62.9035032905468
 20
84.1749999999999
 30
0.0
 11
62.9665032905468
 21
84.9999999999999
 31
0.0
  0
LINE
  5
C6
330
1F
100
AcDbEntity
  8
1
  6
Continuous
 62
     3
100
AcDbLine
 10
62.5885032905468
 20
83.7249999999999
 30
0.0
 11
62.9035032905468
 21
84.1749999999999
 31
0.0
  0
LINE
  5
C7
330
1F
100
AcDbEntity
  8
1
  6
Continuous
 62
     3
100
AcDbLine
 10
62.1475032905468
 20
83.4999999999999
 30
0.0
 11
62.5885032905468
 21
83.7249999999999
 31
0.0
  0
LINE
  5
C8
330
1F
100
AcDbEntity
  8
1
  6
Continuous
 62
     3
100
AcDbLine
 10
61.7065032905468
 20
83.7249999999999
 30
0.0
 11
62.1475032905468
 21
83.4999999999999
 31
0.0
  0
LINE
  5
C9
330
1F
100
AcDbEntity
  8
1
  6
Continuous
 62
     3
100
AcDbLine
 10
61.4545032905468
 20
84.1749999999999
 30
0.0
 11
61.7065032905468
 21
83.7249999999999
 31
0.0
  0
LINE
  5
CA
330
1F
100
AcDbEntity
  8
1
  6
Continuous
 62
     3
100
AcDbLine
 10
61.3285032905468
 20
84.9999999999999
 30
0.0
 11
61.4545032905468
 21
84.1749999999999
 31
0.0
  0
LINE
  5
CB
330
1F
100
AcDbEntity
  8
1
  6
Continuous
 62
     3
100
AcDbLine
 10
61.4545032905468
 20
85.8249999999999
 30
0.0
 11
61.3285032905468
 21
84.9999999999999
 31
0.0
  0
LINE
  5
CC
330
1F
100
AcDbEntity
  8
1
  6
Continuous
 62
     3
100
AcDbLine
 10
61.7065032905468
 20
86.2749999999999
 30
0.0
 11
61.4545032905468
 21
85.8249999999999
 31
0.0
  0
LINE
  5
CD
330
1F
100
AcDbEntity
  8
1
  6
Continuous
 62
     3
100
AcDbLine
 10
62.1475032905468
 20
86.4999999999999
 30
0.0
 11
61.7065032905468
 21
86.2749999999999
 31
0.0
  0
LINE
  5
CE
330
1F
100
AcDbEntity
  8
1
  6
Continuous
 62
     3
100
AcDbLine
 10
58.6825032905468
 20
84.9999999999999
 30
0.0
 11
58.4935032905468
 21
84.3999999999999
 31
0.0
  0
LINE
  5
CF
330
1F
100
AcDbEntity
  8
1
  6
Continuous
 62
     3
100
AcDbLine
 10
58.8715032905468
 20
85.2999999999999
 30
0.0
 11
58.6825032905468
 21
84.9999999999999
 31
0.0
  0
LINE
  5
D0
330
1F
100
AcDbEntity
  8
1
  6
Continuous
 62
     3
100
AcDbLine
 10
59.1865032905468
 20
85.3749999999999
 30
0.0
 11
58.8715032905468
 21
85.2999999999999
 31
0.0
  0
LINE
  5
D1
330
1F
100
AcDbEntity
  8
1
  6
Continuous
 62
     3
100
AcDbLine
 10
59.5015032905468
 20
85.2999999999999
 30
0.0
 11
59.1865032905468
 21
85.3749999999999
 31
0.0
  0
LINE
  5
D2
330
1F
100
AcDbEntity
  8
1
  6
Continuous
 62
     3
100
AcDbLine
 10
59.7535032905468
 20
84.9999999999999
 30
0.0
 11
59.5015032905468
 21
85.2999999999999
 31
0.0
  0
LINE
  5
D3
330
1F
100
AcDbEntity
  8
1
  6
Continuous
 62
     3
100
AcDbLine
 10
59.8165032905468
 20
84.7749999999999
 30
0.0
 11
59.7535032905468
 21
84.9999999999999
 31
0.0
  0
LINE
  5
D4
330
1F
100
AcDbEntity
  8
1
  6
Continuous
 62
     3
100
AcDbLine
 10
59.9425032905468
 20
84.3999999999999
 30
0.0
 11
59.8165032905468
 21
84.7749999999999
 31
0.0
  0
LINE
  5
D5
330
1F
100
AcDbEntity
  8
1
  6
Continuous
 62
     3
100
AcDbLine
 10
59.7535032905468
 20
83.8749999999999
 30
0.0
 11
59.9425032905468
 21
84.3999999999999
 31
0.0
  0
LINE
  5
D6
330
1F
100
AcDbEntity
  8
1
  6
Continuous
 62
     3
100
AcDbLine
 10
59.5645032905468
 20
83.5749999999999
 30
0.0
 11
59.7535032905468
 21
83.8749999999999
 31
0.0
  0
LINE
  5
D7
330
1F
100
AcDbEntity
  8
1
  6
Continuous
 62
     3
100
AcDbLine
 10
59.1865032905468
 20
83.4999999999999
 30
0.0
 11
59.5645032905468
 21
83.5749999999999
 31
0.0
  0
LINE
  5
D8
330
1F
100
AcDbEntity
  8
1
  6
Continuous
 62
     3
100
AcDbLine
 10
58.7455032905468
 20
83.7249999999999
 30
0.0
 11
59.1865032905468
 21
83.4999999999999
 31
0.0
  0
LINE
  5
D9
330
1F
100
AcDbEntity
  8
1
  6
Continuous
 62
     3
100
AcDbLine
 10
58.5565032905468
 20
84.0249999999999
 30
0.0
 11
58.7455032905468
 21
83.7249999999999
 31
0.0
  0
LINE
  5
DA
330
1F
100
AcDbEntity
  8
1
  6
Continuous
 62
     3
100
AcDbLine
 10
58.4935032905468
 20
84.3999999999999
 30
0.0
 11
58.5565032905468
 21
84.0249999999999
 31
0.0
  0
LINE
  5
DB
330
1F
100
AcDbEntity
  8
1
  6
Continuous
 62
     3
100
AcDbLine
 10
58.4935032905468
 20
85.5999999999999
 30
0.0
 11
58.4935032905468
 21
84.3999999999999
 31
0.0
  0
LINE
  5
DC
330
1F
100
AcDbEntity
  8
1
  6
Continuous
 62
     3
100
AcDbLine
 10
58.5565032905468
 20
85.9749999999999
 30
0.0
 11
58.4935032905468
 21
85.5999999999999
 31
0.0
  0
LINE
  5
DD
330
1F
100
AcDbEntity
  8
1
  6
Continuous
 62
     3
100
AcDbLine
 10
58.8085032905468
 20
86.2749999999999
 30
0.0
 11
58.5565032905468
 21
85.9749999999999
 31
0.0
  0
LINE
  5
DE
330
1F
100
AcDbEntity
  8
1
  6
Continuous
 62
     3
100
AcDbLine
 10
58.9345032905468
 20
86.4249999999999
 30
0.0
 11
58.8085032905468
 21
86.2749999999999
 31
0.0
  0
LINE
  5
DF
330
1F
100
AcDbEntity
  8
1
  6
Continuous
 62
     3
100
AcDbLine
 10
59.1865032905468
 20
86.4999999999999
 30
0.0
 11
58.9345032905468
 21
86.4249999999999
 31
0.0
  0
LINE
  5
E0
330
1F
100
AcDbEntity
  8
1
  6
Continuous
 62
     3
100
AcDbLine
 10
59.5015032905468
 20
86.4249999999999
 30
0.0
 11
59.1865032905468
 21
86.4999999999999
 31
0.0
  0
LINE
  5
E1
330
1F
100
AcDbEntity
  8
1
  6
Continuous
 62
     3
100
AcDbLine
 10
59.6905032905468
 20
86.2749999999999
 30
0.0
 11
59.5015032905468
 21
86.4249999999999
 31
0.0
  0
LINE
  5
E2
330
1F
100
AcDbEntity
  8
1
  6
Continuous
 62
     3
100
AcDbLine
 10
59.9425032905468
 20
85.9749999999999
 30
0.0
 11
59.6905032905468
 21
86.2749999999999
 31
0.0
  0
LINE
  5
E3
330
1F
100
AcDbEntity
  8
1
  6
Continuous
 62
     3
100
AcDbLine
 10
55.5325032905468
 20
84.9999999999999
 30
0.0
 11
56.8555032905468
 21
84.9999999999999
 31
0.0
  0
LINE
  5
E4
330
1F
100
AcDbEntity
  8
1
  6
Continuous
 62
     3
100
AcDbLine
 10
52.3825032905468
 20
84.1749999999999
 30
0.0
 11
54.1465032905468
 21
84.1749999999999
 31
0.0
  0
LINE
  5
E5
330
1F
100
AcDbEntity
  8
1
  6
Continuous
 62
     3
100
AcDbLine
 10
53.7055032905468
 20
86.4999999999999
 30
0.0
 11
52.3825032905468
 21
84.1749999999999
 31
0.0
  0
LINE
  5
E6
330
1F
100
AcDbEntity
  8
1
  6
Continuous
 62
     3
100
AcDbLine
 10
53.7055032905468
 20
83.4999999999999
 30
0.0
 11
53.7055032905468
 21
86.4999999999999
 31
0.0
  0
LINE
  5
E7
330
1F
100
AcDbEntity
  8
1
  6
Continuous
 62
     3
100
AcDbLine
 10
51.1225032905468
 20
86.1999999999999
 30
0.0
 11
49.5475032905468
 21
84.0249999999999
 31
0.0
  0
LINE
  5
E8
330
1F
100
AcDbEntity
  8
1
  6
Continuous
 62
     3
100
AcDbLine
 10
46.6495032905468
 20
83.7999999999999
 30
0.0
 11
46.5235032905468
 21
84.0249999999999
 31
0.0
  0
LINE
  5
E9
330
1F
100
AcDbEntity
  8
1
  6
Continuous
 62
     3
100
AcDbLine
 10
46.9645032905468
 20
83.5749999999999
 30
0.0
 11
46.6495032905468
 21
83.7999999999999
 31
0.0
  0
LINE
  5
EA
330
1F
100
AcDbEntity
  8
1
  6
Continuous
 62
     3
100
AcDbLine
 10
47.3425032905468
 20
83.4999999999999
 30
0.0
 11
46.9645032905468
 21
83.5749999999999
 31
0.0
  0
LINE
  5
EB
330
1F
100
AcDbEntity
  8
1
  6
Continuous
 62
     3
100
AcDbLine
 10
47.7835032905468
 20
83.5749999999999
 30
0.0
 11
47.3425032905468
 21
83.4999999999999
 31
0.0
  0
LINE
  5
EC
330
1F
100
AcDbEntity
  8
1
  6
Continuous
 62
     3
100
AcDbLine
 10
47.9725032905468
 20
83.7999999999999
 30
0.0
 11
47.7835032905468
 21
83.5749999999999
 31
0.0
  0
LINE
  5
ED
330
1F
100
AcDbEntity
  8
1
  6
Continuous
 62
     3
100
AcDbLine
 10
48.1615032905468
 20
84.3249999999999
 30
0.0
 11
47.9725032905468
 21
83.7999999999999
 31
0.0
  0
LINE
  5
EE
330
1F
100
AcDbEntity
  8
1
  6
Continuous
 62
     3
100
AcDbLine
 10
47.9725032905468
 20
84.7749999999999
 30
0.0
 11
48.1615032905468
 21
84.3249999999999
 31
0.0
  0
LINE
  5
EF
330
1F
100
AcDbEntity
  8
1
  6
Continuous
 62
     3
100
AcDbLine
 10
47.6575032905468
 20
85.0749999999999
 30
0.0
 11
47.9725032905468
 21
84.7749999999999
 31
0.0
  0
LINE
  5
F0
330
1F
100
AcDbEntity
  8
1
  6
Continuous
 62
     3
100
AcDbLine
 10
47.2795032905468
 20
85.0749999999999
 30
0.0
 11
47.6575032905468
 21
85.0749999999999
 31
0.0
  0
LINE
  5
F1
330
1F
100
AcDbEntity
  8
1
  6
Continuous
 62
     3
100
AcDbLine
 10
47.6575032905468
 20
85.0749999999999
 30
0.0
 11
47.2795032905468
 21
85.0749999999999
 31
0.0
  0
LINE
  5
F2
330
1F
100
AcDbEntity
  8
1
  6
Continuous
 62
     3
100
AcDbLine
 10
47.9095032905468
 20
85.2999999999999
 30
0.0
 11
47.6575032905468
 21
85.0749999999999
 31
0.0
  0
LINE
  5
F3
330
1F
100
AcDbEntity
  8
1
  6
Continuous
 62
     3
100
AcDbLine
 10
48.0985032905468
 20
85.6749999999999
 30
0.0
 11
47.9095032905468
 21
85.2999999999999
 31
0.0
  0
LINE
  5
F4
330
1F
100
AcDbEntity
  8
1
  6
Continuous
 62
     3
100
AcDbLine
 10
47.9725032905468
 20
85.9749999999999
 30
0.0
 11
48.0985032905468
 21
85.6749999999999
 31
0.0
  0
LINE
  5
F5
330
1F
100
AcDbEntity
  8
1
  6
Continuous
 62
     3
100
AcDbLine
 10
47.7835032905468
 20
86.4249999999999
 30
0.0
 11
47.9725032905468
 21
85.9749999999999
 31
0.0
  0
LINE
  5
F6
330
1F
100
AcDbEntity
  8
1
  6
Continuous
 62
     3
100
AcDbLine
 10
47.3425032905468
 20
86.4999999999999
 30
0.0
 11
47.7835032905468
 21
86.4249999999999
 31
0.0
  0
LINE
  5
F7
330
1F
100
AcDbEntity
  8
1
  6
Continuous
 62
     3
100
AcDbLine
 10
46.9015032905468
 20
86.4249999999999
 30
0.0
 11
47.3425032905468
 21
86.4999999999999
 31
0.0
  0
LINE
  5
F8
330
1F
100
AcDbEntity
  8
1
  6
Continuous
 62
     3
100
AcDbLine
 10
46.5865032905468
 20
85.9749999999999
 30
0.0
 11
46.9015032905468
 21
86.4249999999999
 31
0.0
  0
LINE
  5
F9
330
1F
100
AcDbEntity
  8
1
  6
Continuous
 62
     3
100
AcDbLine
 10
40.2999999999999
 20
79.7423620016393
 30
0.0
 11
40.2699781523627
 21
79.7413048601518
 31
0.0
  0
LINE
  5
FA
330
1F
100
AcDbEntity
  8
1
  6
Continuous
 62
     3
100
AcDbLine
 10
40.2999999999999
 20
70.4997908045291
 30
0.0
 11
40.2999999999999
 21
79.7423620016393
 31
0.0
  0
LINE
  5
FB
330
1F
100
AcDbEntity
  8
1
  6
Continuous
 62
     3
100
AcDbLine
 10
40.2699781523627
 20
79.7413048601518
 30
0.0
 11
28.3
 21
79.3198131297798
 31
0.0
  0
LINE
  5
FC
330
1F
100
AcDbEntity
  8
1
  6
Continuous
 62
     3
100
AcDbLine
 10
40.2999999999999
 20
104.500209195471
 30
0.0
 11
40.2999999999999
 21
95.2576379983606
 31
0.0
  0
LINE
  5
FD
330
1F
100
AcDbEntity
  8
1
  6
Continuous
 62
     3
100
AcDbLine
 10
39.7227705098717
 20
75.5286366254838
 30
0.0
 11
39.7227705098717
 21
74.0580336648503
 31
0.0
  0
LINE
  5
FE
330
1F
100
AcDbEntity
  8
1
  6
Continuous
 62
     3
100
AcDbLine
 10
28.3
 20
74.0580336648503
 30
0.0
 11
28.3
 21
68.4999999999999
 31
0.0
  0
LINE
  5
FF
330
1F
100
AcDbEntity
  8
1
  6
Continuous
 62
     3
100
AcDbLine
 10
28.3
 20
74.0580336648503
 30
0.0
 11
39.7227705098717
 21
74.0580336648503
 31
0.0
  0
LINE
  5
100
330
1F
100
AcDbEntity
  8
1
  6
Continuous
 62
     3
100
AcDbLine
 10
28.3
 20
75.5286366254838
 30
0.0
 11
28.3
 21
74.0580336648503
 31
0.0
  0
LINE
  5
101
330
1F
100
AcDbEntity
  8
1
  6
Continuous
 62
     3
100
AcDbLine
 10
28.3
 20
75.5286366254838
 30
0.0
 11
39.7227705098717
 21
75.5286366254838
 31
0.0
  0
LINE
  5
102
330
1F
100
AcDbEntity
  8
1
  6
Continuous
 62
     3
100
AcDbLine
 10
39.7227705098717
 20
100.94196633515
 30
0.0
 11
39.7227705098717
 21
99.471363374516
 31
0.0
  0
LINE
  5
103
330
1F
100
AcDbEntity
  8
1
  6
Continuous
 62
     3
100
AcDbLine
 10
28.3
 20
99.471363374516
 30
0.0
 11
28.3
 21
95.6801868702201
 31
0.0
  0
LINE
  5
104
330
1F
100
AcDbEntity
  8
1
  6
Continuous
 62
     3
100
AcDbLine
 10
28.3
 20
99.471363374516
 30
0.0
 11
39.7227705098717
 21
99.471363374516
 31
0.0
  0
LINE
  5
105
330
1F
100
AcDbEntity
  8
1
  6
Continuous
 62
     3
100
AcDbLine
 10
28.3
 20
100.94196633515
 30
0.0
 11
28.3
 21
99.471363374516
 31
0.0
  0
LINE
  5
106
330
1F
100
AcDbEntity
  8
1
  6
Continuous
 62
     3
100
AcDbLine
 10
28.3
 20
100.94196633515
 30
0.0
 11
39.7227705098717
 21
100.94196633515
 31
0.0
  0
LINE
  5
107
330
1F
100
AcDbEntity
  8
0
  6
Continuous
 62
     3
100
AcDbLine
 10
8.70854606019964
 20
77.5
 30
0.0
 11
6.42625181250864
 21
68.982361909795
 31
0.0
  0
LINE
  5
108
330
1F
100
AcDbEntity
  8
1
  6
Continuous
 62
     3
100
AcDbLine
 10
28.3
 20
79.3198131297798
 30
0.0
 11
20.0
 21
79.027550160077
 31
0.0
  0
LINE
  5
109
330
1F
100
AcDbEntity
  8
1
  6
Continuous
 62
     3
100
AcDbLine
 10
28.3
 20
79.3198131297798
 30
0.0
 11
28.3
 21
75.5286366254838
 31
0.0
  0
LINE
  5
10A
330
1F
100
AcDbEntity
  8
1
  6
Continuous
 62
     3
100
AcDbLine
 10
28.3
 20
95.6801868702201
 30
0.0
 11
20.0
 21
95.9724498399229
 31
0.0
  0
LINE
  5
10B
330
1F
100
AcDbEntity
  8
1
  6
Continuous
 62
     3
100
AcDbLine
 10
28.3
 20
106.5
 30
0.0
 11
28.3
 21
100.94196633515
 31
0.0
  0
LINE
  5
10C
330
1F
100
AcDbEntity
  8
1
  6
Continuous
 62
     3
100
AcDbLine
 10
29.3
 20
69.4999999999999
 30
0.0
 11
39.7227705098717
 21
69.4999999999999
 31
0.0
  0
LINE
  5
10D
330
1F
100
AcDbEntity
  8
1
  6
Continuous
 62
     3
100
AcDbLine
 10
29.3
 20
105.5
 30
0.0
 11
39.7227705098717
 21
105.5
 31
0.0
  0
LINE
  5
10E
330
1F
100
AcDbEntity
  8
1
  6
Continuous
 62
     3
100
AcDbLine
 10
28.3
 20
68.4999999999999
 30
0.0
 11
28.3
 21
64.4999999999999
 31
0.0
  0
LINE
  5
10F
330
1F
100
AcDbEntity
  8
1
  6
Continuous
 62
     3
100
AcDbLine
 10
28.3
 20
110.5
 30
0.0
 11
28.3
 21
106.5
 31
0.0
  0
LINE
  5
110
330
1F
100
AcDbEntity
  8
1
  6
Continuous
 62
     3
100
AcDbLine
 10
27.3
 20
111.5
 30
0.0
 11
24.3
 21
111.5
 31
0.0
  0
LINE
  5
111
330
1F
100
AcDbEntity
  8
1
  6
Continuous
 62
     3
100
AcDbLine
 10
24.3
 20
95.8210364941733
 30
0.0
 11
24.3
 21
111.5
 31
0.0
  0
LINE
  5
112
330
1F
100
AcDbEntity
  8
1
  6
Continuous
 62
     3
100
AcDbLine
 10
24.3
 20
79.1789635058266
 30
0.0
 11
24.3
 21
63.4999999999999
 31
0.0
  0
LINE
  5
113
330
1F
100
AcDbEntity
  8
1
  6
Continuous
 62
     3
100
AcDbLine
 10
24.3
 20
63.4999999999999
 30
0.0
 11
27.3
 21
63.4999999999999
 31
0.0
  0
LINE
  5
114
330
1F
100
AcDbEntity
  8
1
  6
Continuous
 62
     3
100
AcDbLine
 10
40.2999999999999
 20
104.500209195471
 30
0.0
 11
39.7227705098717
 21
105.5
 31
0.0
  0
LINE
  5
115
330
1F
100
AcDbEntity
  8
1
  6
Continuous
 62
     3
100
AcDbLine
 10
40.2999999999999
 20
70.4997908045291
 30
0.0
 11
39.7227705098717
 21
69.4999999999999
 31
0.0
  0
LINE
  5
116
330
1F
100
AcDbEntity
  8
1
  6
Continuous
 62
     3
100
AcDbLine
 10
-97.6444316872033
 20
31.9
 30
0.0
 11
-92.2444316872033
 21
31.9
 31
0.0
  0
LINE
  5
117
330
1F
100
AcDbEntity
  8
0
  6
Continuous
 62
     3
100
AcDbLine
 10
-101.41792103927
 20
30.1437386868103
 30
0.0
 11
-102.693342887479
 21
19.7562613131897
 31
0.0
  0
LINE
  5
118
330
1F
100
AcDbEntity
  8
1
  6
Continuous
 62
     3
100
AcDbLine
 10
-119.644431687203
 20
-16.0
 30
0.0
 11
-118.489731148824
 21
-18.0000000000001
 31
0.0
  0
LINE
  5
119
330
1F
100
AcDbEntity
  8
1
  6
Continuous
 62
     3
100
AcDbLine
 10
-119.644431687203
 20
-13.4
 30
0.0
 11
-119.644431687203
 21
-16.0
 31
0.0
  0
LINE
  5
11A
330
1F
100
AcDbEntity
  8
1
  6
Continuous
 62
     3
100
AcDbLine
 10
-118.489731148824
 20
18.0
 30
0.0
 11
-119.644431687203
 21
16.0
 31
0.0
  0
LINE
  5
11B
330
1F
100
AcDbEntity
  8
0
  6
Continuous
 62
     3
100
AcDbLine
 10
-118.489731148824
 20
18.0
 30
0.0
 11
-104.678435190762
 21
18.0
 31
0.0
  0
LINE
  5
11C
330
1F
100
AcDbEntity
  8
0
  6
Continuous
 62
     3
100
AcDbLine
 10
-60.4709423351364
 20
30.1437386868103
 30
0.0
 11
-56.8386307338647
 21
0.5609346717026
 31
0.0
  0
LINE
  5
11D
330
1F
100
AcDbEntity
  8
1
  6
Continuous
 62
     3
100
AcDbLine
 10
-73.3944316872033
 20
31.9
 30
0.0
 11
-62.4560346384191
 21
31.9
 31
0.0
  0
LINE
  5
11E
330
1F
100
AcDbEntity
  8
1
  6
Continuous
 62
     3
100
AcDbLine
 10
-99.4328287359875
 20
31.9
 30
0.0
 11
-97.6444316872033
 21
31.9
 31
0.0
  0
LINE
  5
11F
330
1F
100
AcDbEntity
  8
1
  6
Continuous
 62
     3
100
AcDbLine
 10
-119.644431687203
 20
16.0
 30
0.0
 11
-119.644431687203
 21
13.4
 31
0.0
  0
LINE
  5
120
330
1F
100
AcDbEntity
  8
1
  6
Continuous
 62
     3
100
AcDbLine
 10
-119.644431687203
 20
13.4
 30
0.0
 11
-119.644431687203
 21
-13.4
 31
0.0
  0
LINE
  5
121
330
1F
100
AcDbEntity
  8
1
  6
Continuous
 62
     3
100
AcDbLine
 10
-92.2444316872033
 20
31.9
 30
0.0
 11
-88.4944316872033
 21
31.9
 31
0.0
  0
LINE
  5
122
330
1F
100
AcDbEntity
  8
1
  6
Continuous
 62
     3
100
AcDbLine
 10
-88.4944316872033
 20
31.9
 30
0.0
 11
-73.3944316872033
 21
31.9
 31
0.0
  0
LINE
  5
123
330
1F
100
AcDbEntity
  8
0
  6
Continuous
 62
     3
100
AcDbLine
 10
-17.21632177136
 20
-22.0297976512791
 30
0.0
 11
7.71224132852007
 21
-22.9776517615405
 31
0.0
  0
LINE
  5
124
330
1F
100
AcDbEntity
  8
0
  6
Continuous
 62
     3
100
AcDbLine
 10
24.3
 20
-24.0
 30
0.0
 11
9.92132034355967
 21
-23.9999999999999
 31
0.0
  0
LINE
  5
125
330
1F
100
AcDbEntity
  8
0
  6
Continuous
 62
     3
100
AcDbLine
 10
24.3
 20
24.0
 30
0.0
 11
13.998832157755
 21
24.0
 31
0.0
  0
LINE
  5
126
330
1F
100
AcDbEntity
  8
0
  6
Continuous
 62
     3
100
AcDbLine
 10
8.7159084632838
 20
-23.4159084632836
 30
0.0
 11
8.86066017177987
 21
-23.5606601717797
 31
0.0
  0
LINE
  5
127
330
1F
100
AcDbEntity
  8
0
  6
Continuous
 62
     3
100
AcDbLine
 10
-21.4142135623731
 20
-18.5857864376269
 30
0.0
 11
-18.5545446177117
 21
-21.4454553822883
 31
0.0
  0
LINE
  5
128
330
1F
100
AcDbEntity
  8
1
  6
Continuous
 62
     3
100
AcDbLine
 10
-11.2593835975102
 20
31.9
 30
0.0
 11
-7.55000000000001
 21
31.9
 31
0.0
  0
LINE
  5
129
330
1F
100
AcDbEntity
  8
1
  6
Continuous
 62
     3
100
AcDbLine
 10
-38.7
 20
16.0
 30
0.0
 11
-38.7
 21
13.4
 31
0.0
  0
LINE
  5
12A
330
1F
100
AcDbEntity
  8
1
  6
Continuous
 62
     3
100
AcDbLine
 10
-37.5452994616207
 20
18.0
 30
0.0
 11
-38.7
 21
16.0
 31
0.0
  0
LINE
  5
12B
330
1F
100
AcDbEntity
  8
0
  6
Continuous
 62
     3
100
AcDbLine
 10
-37.5452994616207
 20
18.0
 30
0.0
 11
-22.8284271247462
 21
17.9999999999999
 31
0.0
  0
LINE
  5
12C
330
1F
100
AcDbEntity
  8
1
  6
Continuous
 62
     3
100
AcDbLine
 10
-38.7
 20
-16.0
 30
0.0
 11
-37.5452994616207
 21
-18.0
 31
0.0
  0
LINE
  5
12D
330
1F
100
AcDbEntity
  8
0
  6
Continuous
 62
     3
100
AcDbLine
 10
-37.5452994616207
 20
-18.0
 30
0.0
 11
-22.8284271247462
 21
-18.0
 31
0.0
  0
LINE
  5
12E
330
1F
100
AcDbEntity
  8
0
  6
Continuous
 62
     3
100
AcDbLine
 10
-11.2593835975102
 20
31.9
 30
0.0
 11
-12.241515010789
 21
23.9011815324604
 31
0.0
  0
LINE
  5
12F
330
1F
100
AcDbEntity
  8
0
  6
Continuous
 62
     3
100
AcDbLine
 10
11.2593835975101
 20
31.9
 30
0.0
 11
12.0137398544724
 21
25.7562613131898
 31
0.0
  0
LINE
  5
130
330
1F
100
AcDbEntity
  8
1
  6
Continuous
 62
     3
100
AcDbLine
 10
7.54999999999996
 20
31.9
 30
0.0
 11
11.2593835975101
 21
31.9
 31
0.0
  0
LINE
  5
131
330
1F
100
AcDbEntity
  8
1
  6
Continuous
 62
     3
100
AcDbLine
 10
-38.7
 20
13.4
 30
0.0
 11
-38.7
 21
-13.4
 31
0.0
  0
LINE
  5
132
330
1F
100
AcDbEntity
  8
1
  6
Continuous
 62
     3
100
AcDbLine
 10
-38.7
 20
-13.4
 30
0.0
 11
-38.7
 21
-16.0
 31
0.0
  0
LINE
  5
133
330
1F
100
AcDbEntity
  8
0
  6
Continuous
 62
     3
100
AcDbLine
 10
-18.5545446177117
 20
21.4454553822883
 30
0.0
 11
-21.4142135623731
 21
18.5857864376268
 31
0.0
  0
LINE
  5
134
330
1F
100
AcDbEntity
  8
0
  6
Continuous
 62
     3
100
AcDbLine
 10
-14.1506165980503
 20
22.1463643879068
 30
0.0
 11
-17.2163217713601
 21
22.029797651279
 31
0.0
  0
LINE
  5
135
330
1F
100
AcDbEntity
  8
1
  6
Continuous
 62
     3
100
AcDbLine
 10
-7.55000000000001
 20
31.9
 30
0.0
 11
7.54999999999996
 21
31.9
 31
0.0
  0
LINE
  5
136
330
1F
100
AcDbEntity
  8
1
  6
DOT_CENTER
 62
     3
100
AcDbLine
 10
-40.0
 20
0.0
 30
0.0
 11
42.2999999999999
 21
0.0
 31
0.0
  0
LINE
  5
137
330
1F
100
AcDbEntity
  8
1
  6
DOT_CENTER
 62
     3
100
AcDbLine
 10
0.0
 20
46.0836231593184
 30
0.0
 11
0.0
 21
-24.9874901241428
 31
0.0
  0
LINE
  5
138
330
1F
100
AcDbEntity
  8
0
  6
Continuous
 62
     3
100
AcDbLine
 10
8.99601667761962
 20
63.8039833223804
 30
0.0
 11
9.30000000000004
 21
63.5
 31
0.0
  0
LINE
  5
139
330
1F
100
AcDbEntity
  8
1
  6
Continuous
 62
     3
100
AcDbLine
 10
-9.73084980365329
 20
65.1855836427245
 30
0.0
 11
-17.2163217713601
 21
65.470202348721
 31
0.0
  0
LINE
  5
13A
330
1F
100
AcDbEntity
  8
1
  6
Continuous
 62
     3
100
AcDbLine
 10
10.8138530037681
 20
63.5
 30
0.0
 11
9.27919902781022
 21
63.5
 31
0.0
  0
LINE
  5
13B
330
1F
100
AcDbEntity
  8
0
  6
Continuous
 62
     3
100
AcDbLine
 10
-9.73084980365329
 20
65.1855836427245
 30
0.0
 11
-9.62959266029887
 21
64.8076868390962
 31
0.0
  0
LINE
  5
13C
330
1F
100
AcDbEntity
  8
0
  6
Continuous
 62
     3
100
AcDbLine
 10
8.99601667761962
 20
63.8039833223804
 30
0.0
 11
9.30000000000004
 21
63.5
 31
0.0
  0
LINE
  5
13D
330
1F
100
AcDbEntity
  8
0
  6
Continuous
 62
     3
100
AcDbLine
 10
-7.69774100772062
 20
63.3253249293012
 30
0.0
 11
7.69774100772074
 21
63.3253249293012
 31
0.0
  0
LINE
  5
13E
330
1F
100
AcDbEntity
  8
0
  6
Continuous
 62
     3
100
AcDbLine
 10
18.0
 20
113.5
 30
0.0
 11
18.0000000000001
 21
125.045299461621
 31
0.0
  0
LINE
  5
13F
330
1F
100
AcDbEntity
  8
0
  6
Continuous
 62
     3
100
AcDbLine
 10
-18.0
 20
110.328427124746
 30
0.0
 11
-18.0
 21
125.045299461621
 31
0.0
  0
LINE
  5
140
330
1F
100
AcDbEntity
  8
0
  6
Continuous
 62
     3
100
AcDbLine
 10
1.03987332589702
 20
113.5
 30
0.0
 11
11.971363374516
 21
113.5
 31
0.0
  0
LINE
  5
141
330
1F
100
AcDbEntity
  8
0
  6
Continuous
 62
     3
100
AcDbLine
 10
13.4419663351496
 20
113.5
 30
0.0
 11
17.9699377702341
 21
113.5
 31
0.0
  0
LINE
  5
142
330
1F
100
AcDbEntity
  8
0
  6
Continuous
 62
     3
100
AcDbLine
 10
-11.9713633745161
 20
113.5
 30
0.0
 11
-1.03987332589708
 21
113.5
 31
0.0
  0
LINE
  5
143
330
1F
100
AcDbEntity
  8
0
  6
Continuous
 62
     3
100
AcDbLine
 10
-17.9699377702341
 20
113.5
 30
0.0
 11
-13.4419663351496
 21
113.5
 31
0.0
  0
LINE
  5
144
330
1F
100
AcDbEntity
  8
0
  6
Continuous
 62
     3
100
AcDbLine
 10
13.4419663351496
 20
124.920425212203
 30
0.0
 11
13.4419663351496
 21
113.5
 31
0.0
  0
LINE
  5
145
330
1F
100
AcDbEntity
  8
0
  6
Continuous
 62
     3
100
AcDbLine
 10
-11.971363374516
 20
124.920425212203
 30
0.0
 11
-11.9713633745161
 21
113.5
 31
0.0
  0
LINE
  5
146
330
1F
100
AcDbEntity
  8
0
  6
Continuous
 62
     3
100
AcDbLine
 10
-1.03987332589708
 20
124.920425212203
 30
0.0
 11
-1.03987332589708
 21
113.5
 31
0.0
  0
LINE
  5
147
330
1F
100
AcDbEntity
  8
0
  6
Continuous
 62
     3
100
AcDbLine
 10
-13.4419663351496
 20
124.920425212203
 30
0.0
 11
-13.4419663351496
 21
113.5
 31
0.0
  0
LINE
  5
148
330
1F
100
AcDbEntity
  8
0
  6
Continuous
 62
     3
100
AcDbLine
 10
11.971363374516
 20
124.920425212203
 30
0.0
 11
11.971363374516
 21
113.5
 31
0.0
  0
LINE
  5
149
330
1F
100
AcDbEntity
  8
0
  6
Continuous
 62
     3
100
AcDbLine
 10
1.03987332589702
 20
124.920425212203
 30
0.0
 11
1.03987332589702
 21
113.5
 31
0.0
  0
LINE
  5
14A
330
1F
100
AcDbEntity
  8
0
  6
Continuous
 62
     3
100
AcDbLine
 10
9.28359479045852
 20
63.5164052095415
 30
0.0
 11
9.27919902781022
 21
63.5
 31
0.0
  0
LINE
  5
14B
330
1F
100
AcDbEntity
  8
0
  6
Continuous
 62
     3
100
AcDbLine
 10
-22.8284271247462
 20
105.5
 30
0.0
 11
-37.5452994616207
 21
105.5
 31
0.0
  0
LINE
  5
14C
330
1F
100
AcDbEntity
  8
0
  6
Continuous
 62
     3
100
AcDbLine
 10
-26.0
 20
88.539873325897
 30
0.0
 11
-26.0
 21
99.4713633745161
 31
0.0
  0
LINE
  5
14D
330
1F
100
AcDbEntity
  8
0
  6
Continuous
 62
     3
100
AcDbLine
 10
-26.0
 20
100.94196633515
 30
0.0
 11
-26.0
 21
105.469937770234
 31
0.0
  0
LINE
  5
14E
330
1F
100
AcDbEntity
  8
0
  6
Continuous
 62
     3
100
AcDbLine
 10
-26.0
 20
75.528636625484
 30
0.0
 11
-26.0
 21
86.460126674103
 31
0.0
  0
LINE
  5
14F
330
1F
100
AcDbEntity
  8
0
  6
Continuous
 62
     3
100
AcDbLine
 10
-26.0
 20
69.5300622297659
 30
0.0
 11
-26.0
 21
74.0580336648503
 31
0.0
  0
LINE
  5
150
330
1F
100
AcDbEntity
  8
0
  6
Continuous
 62
     3
100
AcDbLine
 10
-18.5545446177117
 20
66.0545446177117
 30
0.0
 11
-21.4142135623731
 21
68.9142135623731
 31
0.0
  0
LINE
  5
151
330
1F
100
AcDbEntity
  8
0
  6
Continuous
 62
     3
100
AcDbLine
 10
-18.5857864376269
 20
108.914213562373
 30
0.0
 11
-21.4142135623731
 21
106.085786437627
 31
0.0
  0
LINE
  5
152
330
1F
100
AcDbEntity
  8
0
  6
Continuous
 62
     3
100
AcDbLine
 10
-22.0
 20
104.5
 30
0.0
 11
-22.0
 21
70.5
 31
0.0
  0
LINE
  5
153
330
1F
100
AcDbEntity
  8
0
  6
Continuous
 62
     3
100
AcDbLine
 10
-18.0
 20
108.5
 30
0.0
 11
-18.0
 21
66.5
 31
0.0
  0
LINE
  5
154
330
1F
100
AcDbEntity
  8
0
  6
Continuous
 62
     3
100
AcDbLine
 10
-37.5452994616207
 20
100.94196633515
 30
0.0
 11
-26.0
 21
100.94196633515
 31
0.0
  0
LINE
  5
155
330
1F
100
AcDbEntity
  8
0
  6
Continuous
 62
     3
100
AcDbLine
 10
-22.8284271247462
 20
69.5000000000001
 30
0.0
 11
-37.5452994616207
 21
69.5
 31
0.0
  0
LINE
  5
156
330
1F
100
AcDbEntity
  8
0
  6
Continuous
 62
     3
100
AcDbLine
 10
-37.5452994616207
 20
75.528636625484
 30
0.0
 11
-26.0
 21
75.528636625484
 31
0.0
  0
LINE
  5
157
330
1F
100
AcDbEntity
  8
0
  6
Continuous
 62
     3
100
AcDbLine
 10
-37.5452994616207
 20
86.460126674103
 30
0.0
 11
-26.0
 21
86.460126674103
 31
0.0
  0
LINE
  5
158
330
1F
100
AcDbEntity
  8
0
  6
Continuous
 62
     3
100
AcDbLine
 10
-37.5452994616207
 20
74.0580336648504
 30
0.0
 11
-26.0
 21
74.0580336648503
 31
0.0
  0
LINE
  5
159
330
1F
100
AcDbEntity
  8
0
  6
Continuous
 62
     3
100
AcDbLine
 10
-37.5452994616207
 20
99.4713633745161
 30
0.0
 11
-26.0
 21
99.4713633745161
 31
0.0
  0
LINE
  5
15A
330
1F
100
AcDbEntity
  8
0
  6
Continuous
 62
     3
100
AcDbLine
 10
-37.5452994616207
 20
88.539873325897
 30
0.0
 11
-26.0
 21
88.539873325897
 31
0.0
  0
LINE
  5
15B
330
1F
100
AcDbEntity
  8
0
  6
Continuous
 62
     3
100
AcDbLine
 10
6.42625181250864
 20
106.017638090205
 30
0.0
 11
7.70032851933932
 21
101.262719087573
 31
0.0
  0
LINE
  5
15C
330
1F
100
AcDbEntity
  8
0
  6
Continuous
 62
     3
100
AcDbLine
 10
-4.49440015993056
 20
107.5
 30
0.0
 11
4.49440015993054
 21
107.5
 31
0.0
  0
LINE
  5
15D
330
1F
100
AcDbEntity
  8
0
  6
Continuous
 62
     3
100
AcDbLine
 10
-10.6251840891798
 20
90.3470094961278
 30
0.0
 11
-6.4262518125087
 21
106.017638090205
 31
0.0
  0
LINE
  5
15E
330
1F
100
AcDbEntity
  8
0
  6
Continuous
 62
     3
100
AcDbLine
 10
-6.4262518125087
 20
68.982361909795
 30
0.0
 11
-8.70854606019963
 21
77.5
 31
0.0
  0
LINE
  5
15F
330
1F
100
AcDbEntity
  8
0
  6
Continuous
 62
     3
100
AcDbLine
 10
4.49440015993054
 20
67.5
 30
0.0
 11
-4.49440015993056
 21
67.5
 31
0.0
  0
LINE
  5
160
330
1F
100
AcDbEntity
  8
0
  6
Continuous
 62
     3
100
AcDbLine
 10
9.28359479045852
 20
63.5164052095415
 30
0.0
 11
9.30000000000004
 21
63.5
 31
0.0
  0
LINE
  5
161
330
1F
100
AcDbEntity
  8
0
  6
Continuous
 62
     3
100
AcDbLine
 10
24.3908610930204
 20
63.5
 30
0.0
 11
10.8138530037681
 21
63.5
 31
0.0
  0
LINE
  5
162
330
1F
100
AcDbEntity
  8
0
  6
Continuous
 62
     3
100
AcDbLine
 10
24.3908610930204
 20
111.5
 30
0.0
 11
20.0
 21
111.5
 31
0.0
  0
LINE
  5
163
330
1F
100
AcDbEntity
  8
1
  6
Continuous
 62
     3
100
AcDbLine
 10
-37.5452994616207
 20
105.5
 30
0.0
 11
-38.7
 21
103.5
 31
0.0
  0
LINE
  5
164
330
1F
100
AcDbEntity
  8
1
  6
Continuous
 62
     3
100
AcDbLine
 10
-38.7
 20
103.5
 30
0.0
 11
-38.7
 21
71.5
 31
0.0
  0
LINE
  5
165
330
1F
100
AcDbEntity
  8
1
  6
Continuous
 62
     3
100
AcDbLine
 10
-38.7
 20
71.5
 30
0.0
 11
-37.5452994616207
 21
69.5
 31
0.0
  0
LINE
  5
166
330
1F
100
AcDbEntity
  8
1
  6
Continuous
 62
     3
100
AcDbLine
 10
-37.5452994616207
 20
100.94196633515
 30
0.0
 11
-37.5452994616207
 21
99.4713633745161
 31
0.0
  0
LINE
  5
167
330
1F
100
AcDbEntity
  8
1
  6
Continuous
 62
     3
100
AcDbLine
 10
-37.5452994616207
 20
88.539873325897
 30
0.0
 11
-37.5452994616207
 21
86.460126674103
 31
0.0
  0
LINE
  5
168
330
1F
100
AcDbEntity
  8
1
  6
Continuous
 62
     3
100
AcDbLine
 10
-37.5452994616207
 20
75.528636625484
 30
0.0
 11
-37.5452994616207
 21
74.0580336648504
 31
0.0
  0
LINE
  5
169
330
1F
100
AcDbEntity
  8
1
  6
Continuous
 62
     3
100
AcDbLine
 10
18.0000000000001
 20
125.045299461621
 30
0.0
 11
16.0000000000001
 21
126.2
 31
0.0
  0
LINE
  5
16A
330
1F
100
AcDbEntity
  8
1
  6
Continuous
 62
     3
100
AcDbLine
 10
16.0000000000001
 20
126.2
 30
0.0
 11
-15.9999999999999
 21
126.2
 31
0.0
  0
LINE
  5
16B
330
1F
100
AcDbEntity
  8
1
  6
Continuous
 62
     3
100
AcDbLine
 10
-15.9999999999999
 20
126.2
 30
0.0
 11
-18.0
 21
125.045299461621
 31
0.0
  0
LINE
  5
16C
330
1F
100
AcDbEntity
  8
1
  6
Continuous
 62
     3
100
AcDbLine
 10
13.4419663351496
 20
125.045299461621
 30
0.0
 11
11.9713633745161
 21
125.045299461621
 31
0.0
  0
LINE
  5
16D
330
1F
100
AcDbEntity
  8
1
  6
Continuous
 62
     3
100
AcDbLine
 10
1.03987332589708
 20
125.045299461621
 30
0.0
 11
-1.03987332589699
 21
125.045299461621
 31
0.0
  0
LINE
  5
16E
330
1F
100
AcDbEntity
  8
1
  6
Continuous
 62
     3
100
AcDbLine
 10
-11.971363374516
 20
125.045299461621
 30
0.0
 11
-13.4419663351495
 21
125.045299461621
 31
0.0
  0
LINE
  5
16F
330
1F
100
AcDbEntity
  8
1
  6
Continuous
 62
     3
100
AcDbLine
 10
6.41254730051273
 20
67.0
 30
0.0
 11
8.57459519821271
 21
64.3253249293012
 31
0.0
  0
LINE
  5
170
330
1F
100
AcDbEntity
  8
1
  6
Continuous
 62
     3
100
AcDbLine
 10
-6.53088253319211
 20
67.0
 30
0.0
 11
-8.77520139853451
 21
64.3253249293012
 31
0.0
  0
LINE
  5
171
330
1F
100
AcDbEntity
  8
1
  6
Continuous
 62
     3
100
AcDbLine
 10
6.43192852800638
 20
107.8
 30
0.0
 11
7.03757561709855
 21
108.744349694693
 31
0.0
  0
LINE
  5
172
330
1F
100
AcDbEntity
  8
1
  6
Continuous
 62
     3
100
AcDbLine
 10
-6.02087206137833
 20
107.8
 30
0.0
 11
-6.86159669182453
 21
108.744349694693
 31
0.0
  0
LINE
  5
173
330
1F
100
AcDbEntity
  8
0
  6
Continuous
 62
     3
100
AcDbLine
 10
9.30000000000001
 20
69.5
 30
0.0
 11
9.30000000000004
 21
64.5
 31
0.0
  0
LINE
  5
174
330
1F
100
AcDbEntity
  8
1
  6
DOT_CENTER
 62
     3
100
AcDbLine
 10
-4.0
 20
101.5
 30
0.0
 11
4.0
 21
101.5
 31
0.0
  0
LINE
  5
175
330
1F
100
AcDbEntity
  8
1
  6
Continuous
 62
     3
100
AcDbLine
 10
-14.0
 20
32.4
 30
0.0
 11
14.5773502691896
 21
32.4
 31
0.0
  0
LINE
  5
176
330
1F
100
AcDbEntity
  8
1
  6
Continuous
 62
     3
100
AcDbLine
 10
-7.5
 20
31.9
 30
0.0
 11
-7.5
 21
32.4
 31
0.0
  0
LINE
  5
177
330
1F
100
AcDbEntity
  8
1
  6
Continuous
 62
     3
100
AcDbLine
 10
7.5
 20
32.4
 30
0.0
 11
7.5
 21
31.9
 31
0.0
  0
LINE
  5
178
330
1F
100
AcDbEntity
  8
1
  6
Continuous
 62
     3
100
AcDbLine
 10
3.952742391576
 20
42.4
 30
0.0
 11
6.5
 21
42.4
 31
0.0
  0
LINE
  5
179
330
1F
100
AcDbEntity
  8
1
  6
Continuous
 62
     3
100
AcDbLine
 10
3.20000000000005
 20
43.152742391576
 30
0.0
 11
3.952742391576
 21
42.4
 31
0.0
  0
LINE
  5
17A
330
1F
100
AcDbEntity
  8
1
  6
Continuous
 62
     3
100
AcDbLine
 10
-3.952742391576
 20
42.4
 30
0.0
 11
3.952742391576
 21
42.4
 31
0.0
  0
LINE
  5
17B
330
1F
100
AcDbEntity
  8
1
  6
Continuous
 62
     3
100
AcDbLine
 10
-3.952742391576
 20
42.4
 30
0.0
 11
-3.20000000000005
 21
43.152742391576
 31
0.0
  0
LINE
  5
17C
330
1F
100
AcDbEntity
  8
1
  6
Continuous
 62
     3
100
AcDbLine
 10
-3.20000000000005
 20
43.152742391576
 30
0.0
 11
-0.30000000000001
 21
43.152742391576
 31
0.0
  0
LINE
  5
17D
330
1F
100
AcDbEntity
  8
1
  6
Continuous
 62
     3
100
AcDbLine
 10
0.0
 20
42.4284783228641
 30
0.0
 11
0.30000000000001
 21
43.152742391576
 31
0.0
  0
LINE
  5
17E
330
1F
100
AcDbEntity
  8
1
  6
Continuous
 62
     3
100
AcDbLine
 10
0.0
 20
42.4284783228641
 30
0.0
 11
-0.30000000000001
 21
43.152742391576
 31
0.0
  0
LINE
  5
17F
330
1F
100
AcDbEntity
  8
1
  6
Continuous
 62
     3
100
AcDbLine
 10
0.30000000000001
 20
43.152742391576
 30
0.0
 11
3.20000000000005
 21
43.152742391576
 31
0.0
  0
LINE
  5
180
330
1F
100
AcDbEntity
  8
1
  6
Continuous
 62
     3
100
AcDbLine
 10
-0.30000000000001
 20
43.152742391576
 30
0.0
 11
0.30000000000001
 21
43.152742391576
 31
0.0
  0
LINE
  5
181
330
1F
100
AcDbEntity
  8
1
  6
Continuous
 62
     3
100
AcDbLine
 10
-6.5
 20
42.4
 30
0.0
 11
-3.952742391576
 21
42.4
 31
0.0
  0
LINE
  5
182
330
1F
100
AcDbEntity
  8
1
  6
Continuous
 62
     3
100
AcDbLine
 10
7.69999999999999
 20
37.4
 30
0.0
 11
7.69999999999999
 21
35.4
 31
0.0
  0
LINE
  5
183
330
1F
100
AcDbEntity
  8
1
  6
Continuous
 62
     3
100
AcDbLine
 10
0.57735026918965
 20
35.4
 30
0.0
 11
1.7320508075689
 21
37.4
 31
0.0
  0
LINE
  5
184
330
1F
100
AcDbEntity
  8
1
  6
Continuous
 62
     3
100
AcDbLine
 10
0.0
 20
35.4
 30
0.0
 11
1.15470053837925
 21
37.4
 31
0.0
  0
LINE
  5
185
330
1F
100
AcDbEntity
  8
1
  6
Continuous
 62
     3
100
AcDbLine
 10
-7.69999999999999
 20
37.4
 30
0.0
 11
7.69999999999999
 21
37.4
 31
0.0
  0
LINE
  5
186
330
1F
100
AcDbEntity
  8
1
  6
Continuous
 62
     3
100
AcDbLine
 10
-7.69999999999999
 20
35.4
 30
0.0
 11
-7.69999999999999
 21
37.4
 31
0.0
  0
LINE
  5
187
330
1F
100
AcDbEntity
  8
1
  6
Continuous
 62
     3
100
AcDbLine
 10
-3.75277674973262
 20
37.9773502691896
 30
0.0
 11
-4.75277674973259
 21
37.4
 31
0.0
  0
LINE
  5
188
330
1F
100
AcDbEntity
  8
1
  6
Continuous
 62
     3
100
AcDbLine
 10
4.75277674973259
 20
37.4
 30
0.0
 11
3.75277674973259
 21
37.9773502691896
 31
0.0
  0
LINE
  5
189
330
1F
100
AcDbEntity
  8
1
  6
Continuous
 62
     3
100
AcDbLine
 10
3.75277674973259
 20
41.8226497308104
 30
0.0
 11
4.75277674973259
 21
42.4
 31
0.0
  0
LINE
  5
18A
330
1F
100
AcDbEntity
  8
1
  6
Continuous
 62
     3
100
AcDbLine
 10
-7.69999999999999
 20
37.4
 30
0.0
 11
7.69999999999999
 21
37.4
 31
0.0
  0
LINE
  5
18B
330
1F
100
AcDbEntity
  8
1
  6
Continuous
 62
     3
100
AcDbLine
 10
6.5
 20
37.4
 30
0.0
 11
4.0
 21
37.4
 31
0.0
  0
LINE
  5
18C
330
1F
100
AcDbEntity
  8
1
  6
Continuous
 62
     3
100
AcDbLine
 10
-4.0
 20
37.4
 30
0.0
 11
-6.5
 21
37.4
 31
0.0
  0
LINE
  5
18D
330
1F
100
AcDbEntity
  8
1
  6
Continuous
 62
     3
100
AcDbLine
 10
-4.75277674973259
 20
42.4
 30
0.0
 11
-3.75277674973262
 21
41.8226497308104
 31
0.0
  0
LINE
  5
18E
330
1F
100
AcDbEntity
  8
1
  6
Continuous
 62
     3
100
AcDbLine
 10
3.75277674973259
 20
37.9773502691896
 30
0.0
 11
3.75277674973259
 21
41.8226497308104
 31
0.0
  0
LINE
  5
18F
330
1F
100
AcDbEntity
  8
1
  6
Continuous
 62
     3
100
AcDbLine
 10
-3.75277674973262
 20
41.8226497308104
 30
0.0
 11
-3.75277674973262
 21
37.9773502691896
 31
0.0
  0
LINE
  5
190
330
1F
100
AcDbEntity
  8
1
  6
Continuous
 62
     3
100
AcDbLine
 10
6.5
 20
42.4
 30
0.0
 11
7.5
 21
41.8226497308104
 31
0.0
  0
LINE
  5
191
330
1F
100
AcDbEntity
  8
1
  6
Continuous
 62
     3
100
AcDbLine
 10
7.5
 20
37.9773502691896
 30
0.0
 11
6.5
 21
37.4
 31
0.0
  0
LINE
  5
192
330
1F
100
AcDbEntity
  8
1
  6
Continuous
 62
     3
100
AcDbLine
 10
7.5
 20
41.8226497308104
 30
0.0
 11
7.5
 21
37.9773502691896
 31
0.0
  0
LINE
  5
193
330
1F
100
AcDbEntity
  8
1
  6
Continuous
 62
     3
100
AcDbLine
 10
-7.5
 20
41.8226497308104
 30
0.0
 11
-6.5
 21
42.4
 31
0.0
  0
LINE
  5
194
330
1F
100
AcDbEntity
  8
1
  6
Continuous
 62
     3
100
AcDbLine
 10
-6.5
 20
37.4
 30
0.0
 11
-7.5
 21
37.9773502691896
 31
0.0
  0
LINE
  5
195
330
1F
100
AcDbEntity
  8
1
  6
Continuous
 62
     3
100
AcDbLine
 10
-7.5
 20
37.9773502691896
 30
0.0
 11
-7.5
 21
41.8226497308104
 31
0.0
  0
LINE
  5
196
330
1F
100
AcDbEntity
  8
1
  6
Continuous
 62
     3
100
AcDbLine
 10
-14.0
 20
32.4
 30
0.0
 11
-14.0
 21
35.4
 31
0.0
  0
LINE
  5
197
330
1F
100
AcDbEntity
  8
1
  6
Continuous
 62
     3
100
AcDbLine
 10
13.4226497308104
 20
35.4
 30
0.0
 11
-14.0
 21
35.4
 31
0.0
  0
LINE
  5
198
330
1F
100
AcDbEntity
  8
1
  6
Continuous
 62
     3
100
AcDbLine
 10
20.0
 20
45.7923048454132
 30
0.0
 11
14.2886751345948
 21
35.9
 31
0.0
  0
LINE
  5
199
330
1F
100
AcDbEntity
  8
1
  6
Continuous
 62
     3
100
AcDbLine
 10
16.3094010767585
 20
33.4
 30
0.0
 11
18.1784747920159
 21
36.6373306379174
 31
0.0
  0
LINE
  5
19A
330
1F
100
AcDbEntity
  8
1
  6
Continuous
 62
     3
100
AcDbLine
 10
18.1784747920159
 20
36.6373306379174
 30
0.0
 11
18.9762713652777
 21
37.7929419379713
 31
0.0
  0
LINE
  5
19B
330
1F
100
AcDbEntity
  8
1
  6
Continuous
 62
     3
100
AcDbLine
 10
27.2790561913614
 20
48.4
 30
0.0
 11
77.7863384365952
 21
48.4
 31
0.0
  0
LINE
  5
19C
330
1F
100
AcDbEntity
  8
1
  6
Continuous
 62
     3
100
AcDbLine
 10
26.4130307875769
 20
47.9
 30
0.0
 11
20.287405411262
 21
37.2901056200893
 31
0.0
  0
LINE
  5
19D
330
1F
100
AcDbEntity
  8
1
  6
Continuous
 62
     3
100
AcDbLine
 10
77.7863384365952
 20
53.5
 30
0.0
 11
24.9696551146029
 21
53.5
 31
0.0
  0
LINE
  5
19E
330
1F
100
AcDbEntity
  8
1
  6
Continuous
 62
     3
100
AcDbLine
 10
22.3715789032496
 20
52.0
 30
0.0
 11
20.2679491924311
 21
48.356406460551
 31
0.0
  0
LINE
  5
19F
330
1F
100
AcDbEntity
  8
1
  6
Continuous
 62
     3
100
AcDbLine
 10
20.0
 20
47.356406460551
 30
0.0
 11
20.0
 21
45.7923048454132
 31
0.0
  0
LINE
  5
1A0
330
1F
100
AcDbEntity
  8
1
  6
Continuous
 62
     3
100
AcDbLine
 10
0.769597935245
 20
73.2228817400259
 30
0.0
 11
-0.38040206475499
 21
73.2228817400259
 31
0.0
  0
LINE
  5
1A1
330
1F
100
AcDbEntity
  8
1
  6
Continuous
 62
     3
100
AcDbLine
 10
-0.38040206475499
 20
73.2228817400259
 30
0.0
 11
-0.38040206475499
 21
72.2228817400259
 31
0.0
  0
LINE
  5
1A2
330
1F
100
AcDbEntity
  8
1
  6
Continuous
 62
     3
100
AcDbLine
 10
-0.38040206475499
 20
72.2228817400259
 30
0.0
 11
0.61959793524501
 21
72.2228817400259
 31
0.0
  0
LINE
  5
1A3
330
1F
100
AcDbEntity
  8
1
  6
Continuous
 62
     3
100
AcDbLine
 10
-0.38040206475499
 20
72.2228817400259
 30
0.0
 11
-0.38040206475499
 21
71.2228817400259
 31
0.0
  0
LINE
  5
1A4
330
1F
100
AcDbEntity
  8
1
  6
DOT_CENTER
 62
     3
100
AcDbLine
 10
0.0
 20
128.94228816854
 30
0.0
 11
0.0
 21
74.798003421913
 31
0.0
  0
LINE
  5
1A5
330
1F
100
AcDbEntity
  8
1
  6
DOT_CENTER
 62
     3
100
AcDbLine
 10
0.0
 20
70.415760236779
 30
0.0
 11
0.0
 21
61.4040081533128
 31
0.0
  0
LINE
  5
1A6
330
1F
100
AcDbEntity
  8
1
  6
Continuous
 62
     3
100
AcDbLine
 10
-92.0363286144762
 20
35.4
 30
0.0
 11
-70.9444316872033
 21
35.4
 31
0.0
  0
LINE
  5
1A7
330
1F
100
AcDbEntity
  8
1
  6
Continuous
 62
     3
100
AcDbLine
 10
-88.6444316872033
 20
37.4
 30
0.0
 11
-73.2444316872033
 21
37.4
 31
0.0
  0
LINE
  5
1A8
330
1F
100
AcDbEntity
  8
1
  6
Continuous
 62
     3
100
AcDbLine
 10
-70.9444316872033
 20
32.4
 30
0.0
 11
-70.9444316872033
 21
35.4
 31
0.0
  0
LINE
  5
1A9
330
1F
100
AcDbEntity
  8
1
  6
Continuous
 62
     3
100
AcDbLine
 10
-89.8762683744008
 20
44.5629273461493
 30
0.0
 11
-89.8158610588902
 21
52.3083844045162
 31
0.0
  0
LINE
  5
1AA
330
1F
100
AcDbEntity
  8
1
  6
Continuous
 62
     3
100
AcDbLine
 10
-88.6158903501806
 20
53.5
 30
0.0
 11
-80.9444316872033
 21
53.5
 31
0.0
  0
LINE
  5
1AB
330
1F
100
AcDbEntity
  8
1
  6
Continuous
 62
     3
100
AcDbLine
 10
-80.9444316872033
 20
53.5
 30
0.0
 11
-73.272973024226
 21
53.5
 31
0.0
  0
LINE
  5
1AC
330
1F
100
AcDbEntity
  8
1
  6
Continuous
 62
     3
100
AcDbLine
 10
-71.1827405189547
 20
36.3906312107659
 30
0.0
 11
-70.9444316872033
 21
35.4
 31
0.0
  0
LINE
  5
1AD
330
1F
100
AcDbEntity
  8
1
  6
Continuous
 62
     3
100
AcDbLine
 10
-71.1827405189547
 20
36.3906312107659
 30
0.0
 11
-73.2601342968425
 21
45.0261949802757
 31
0.0
  0
LINE
  5
1AE
330
1F
100
AcDbEntity
  8
1
  6
Continuous
 62
     3
100
AcDbLine
 10
-72.0730023155165
 20
52.3083844045162
 30
0.0
 11
-72.0125950000058
 21
44.5629273461493
 31
0.0
  0
LINE
  5
1AF
330
1F
100
AcDbEntity
  8
1
  6
Continuous
 62
     3
100
AcDbLine
 10
-87.6564660448338
 20
45.7923048454132
 30
0.0
 11
-74.2323973295728
 21
45.7923048454132
 31
0.0
  0
LINE
  5
1B0
330
1F
100
AcDbEntity
  8
1
  6
Continuous
 62
     3
100
AcDbLine
 10
-88.6287290775641
 20
45.0261949802757
 30
0.0
 11
-90.9444316872033
 21
35.4
 31
0.0
  0
LINE
  5
1B1
330
1F
100
AcDbEntity
  8
1
  6
Continuous
 62
     3
100
AcDbLine
 10
-92.4444316872033
 20
35.8
 30
0.0
 11
-91.9444316872033
 21
35.3
 31
0.0
  0
LINE
  5
1B2
330
1F
100
AcDbEntity
  8
1
  6
Continuous
 62
     3
100
AcDbLine
 10
-91.9444316872033
 20
31.9
 30
0.0
 11
-91.9444316872033
 21
35.3
 31
0.0
  0
LINE
  5
1B3
330
1F
100
AcDbEntity
  8
1
  6
Continuous
 62
     3
100
AcDbLine
 10
-72.9444316872033
 20
31.9
 30
0.0
 11
-72.9444316872033
 21
32.4
 31
0.0
  0
LINE
  5
1B4
330
1F
100
AcDbEntity
  8
1
  6
Continuous
 62
     3
100
AcDbLine
 10
-70.9444316872033
 20
32.4
 30
0.0
 11
-91.9444316872033
 21
32.4
 31
0.0
  0
LINE
  5
1B5
330
1F
100
AcDbEntity
  8
1
  6
Continuous
 62
     3
100
AcDbLine
 10
-73.2444316872033
 20
37.4
 30
0.0
 11
-73.2444316872033
 21
35.4
 31
0.0
  0
LINE
  5
1B6
330
1F
100
AcDbEntity
  8
1
  6
Continuous
 62
     3
100
AcDbLine
 10
-88.6444316872033
 20
35.4
 30
0.0
 11
-88.6444316872033
 21
37.4
 31
0.0
  0
LINE
  5
1B7
330
1F
100
AcDbEntity
  8
1
  6
Continuous
 62
     3
100
AcDbLine
 10
-90.9444316872033
 20
32.4
 30
0.0
 11
-90.9444316872033
 21
35.4
 31
0.0
  0
LINE
  5
1B8
330
1F
100
AcDbEntity
  8
1
  6
Continuous
 62
     3
100
AcDbLine
 10
-88.9444316872033
 20
32.4
 30
0.0
 11
-88.9444316872033
 21
31.9
 31
0.0
  0
LINE
  5
1B9
330
1F
100
AcDbEntity
  8
1
  6
Continuous
 62
     3
100
AcDbLine
 10
-97.9444316872033
 20
35.3
 30
0.0
 11
-91.9444316872033
 21
35.3
 31
0.0
  0
LINE
  5
1BA
330
1F
100
AcDbEntity
  8
1
  6
Continuous
 62
     3
100
AcDbLine
 10
-97.4444316872033
 20
35.8
 30
0.0
 11
-97.9444316872033
 21
35.3
 31
0.0
  0
LINE
  5
1BB
330
1F
100
AcDbEntity
  8
1
  6
Continuous
 62
     3
100
AcDbLine
 10
-97.4444316872033
 20
35.8
 30
0.0
 11
-92.4444316872033
 21
35.8
 31
0.0
  0
LINE
  5
1BC
330
1F
100
AcDbEntity
  8
1
  6
Continuous
 62
     3
100
AcDbLine
 10
-97.9444316872033
 20
31.9
 30
0.0
 11
-97.9444316872033
 21
35.3
 31
0.0
  0
LINE
  5
1BD
330
1F
100
AcDbEntity
  8
1
  6
DOT_CENTER
 62
     3
100
AcDbLine
 10
6.49358657959269
 20
87.4999999999999
 30
0.0
 11
7.5
 21
87.4999999999999
 31
0.0
  0
LINE
  5
1BE
330
1F
100
AcDbEntity
  8
1
  6
Continuous
 62
     3
100
AcDbLine
 10
0.3
 20
87.2
 30
0.0
 11
-3.1859064644148
 21
87.2
 31
0.0
  0
LINE
  5
1BF
330
1F
100
AcDbEntity
  8
1
  6
Continuous
 62
     3
100
AcDbLine
 10
-0.3
 20
87.8
 30
0.0
 11
-3.1859064644148
 21
87.8
 31
0.0
  0
LINE
  5
1C0
330
1F
100
AcDbEntity
  8
1
  6
Continuous
 62
     3
100
AcDbLine
 10
0.3
 20
90.6859064644148
 30
0.0
 11
0.3
 21
87.2
 31
0.0
  0
LINE
  5
1C1
330
1F
100
AcDbEntity
  8
1
  6
Continuous
 62
     3
100
AcDbLine
 10
-0.3
 20
90.6859064644148
 30
0.0
 11
-0.3
 21
87.8
 31
0.0
  0
LINE
  5
1C2
330
1F
100
AcDbEntity
  8
1
  6
Continuous
 62
     3
100
AcDbLine
 10
-3.92426406871193
 20
87.5
 30
0.0
 11
-3.1859064644148
 21
87.2
 31
0.0
  0
LINE
  5
1C3
330
1F
100
AcDbEntity
  8
1
  6
Continuous
 62
     3
100
AcDbLine
 10
-3.1859064644148
 20
87.8
 30
0.0
 11
-3.92426406871193
 21
87.5
 31
0.0
  0
LINE
  5
1C4
330
1F
100
AcDbEntity
  8
1
  6
Continuous
 62
     3
100
AcDbLine
 10
0.0
 20
91.4242640687119
 30
0.0
 11
-0.3
 21
90.6859064644148
 31
0.0
  0
LINE
  5
1C5
330
1F
100
AcDbEntity
  8
1
  6
DOT_CENTER
 62
     3
100
AcDbLine
 10
0.0
 20
91.4242640687119
 30
0.0
 11
0.0
 21
91.5
 31
0.0
  0
LINE
  5
1C6
330
1F
100
AcDbEntity
  8
1
  6
Continuous
 62
     3
100
AcDbLine
 10
0.0
 20
91.4242640687119
 30
0.0
 11
0.3
 21
90.6859064644148
 31
0.0
  0
LINE
  5
1C7
330
1F
100
AcDbEntity
  8
1
  6
DOT_CENTER
 62
     3
100
AcDbLine
 10
-4.0
 20
101.5
 30
0.0
 11
4.0
 21
101.5
 31
0.0
  0
LINE
  5
1C8
330
1F
100
AcDbEntity
  8
1
  6
Continuous
 62
     3
100
AcDbLine
 10
-3.7527767497326
 20
93.9935865795926
 30
0.0
 11
3.75277674973259
 21
93.9935865795926
 31
0.0
  0
LINE
  5
1C9
330
1F
100
AcDbEntity
  8
1
  6
Continuous
 62
     3
100
AcDbLine
 10
3.75277674973259
 20
93.9935865795926
 30
0.0
 11
7.5
 21
87.4999999999999
 31
0.0
  0
LINE
  5
1CA
330
1F
100
AcDbEntity
  8
1
  6
DOT_CENTER
 62
     3
100
AcDbLine
 10
7.5
 20
87.4999999999999
 30
0.0
 11
6.49358657959269
 21
87.4999999999999
 31
0.0
  0
LINE
  5
1CB
330
1F
100
AcDbEntity
  8
1
  6
Continuous
 62
     3
100
AcDbLine
 10
-3.7527767497326
 20
93.9935865795926
 30
0.0
 11
-7.50000000000001
 21
87.4999999999999
 31
0.0
  0
LINE
  5
1CC
330
1F
100
AcDbEntity
  8
1
  6
Continuous
 62
     3
100
AcDbLine
 10
3.75277674973259
 20
81.0064134204073
 30
0.0
 11
-3.7527767497326
 21
81.0064134204073
 31
0.0
  0
LINE
  5
1CD
330
1F
100
AcDbEntity
  8
1
  6
Continuous
 62
     3
100
AcDbLine
 10
7.5
 20
87.4999999999999
 30
0.0
 11
3.75277674973259
 21
81.0064134204073
 31
0.0
  0
LINE
  5
1CE
330
1F
100
AcDbEntity
  8
1
  6
Continuous
 62
     3
100
AcDbLine
 10
-7.50000000000001
 20
87.4999999999999
 30
0.0
 11
-3.7527767497326
 21
81.0064134204073
 31
0.0
  0
LINE
  5
1CF
330
1F
100
AcDbEntity
  8
1
  6
Continuous
 62
     3
100
AcDbLine
 10
0.0
 20
97.5
 30
0.0
 11
3.0
 21
97.5
 31
0.0
  0
LINE
  5
1D0
330
1F
100
AcDbEntity
  8
1
  6
Continuous
 62
     3
100
AcDbLine
 10
-10.0
 20
87.5
 30
0.0
 11
-10.0
 21
84.5
 31
0.0
  0
LINE
  5
1D1
330
1F
100
AcDbEntity
  8
1
  6
Continuous
 62
     3
100
AcDbLine
 10
3.0
 20
97.5
 30
0.0
 11
3.0
 21
101.5
 31
0.0
  0
LINE
  5
1D2
330
1F
100
AcDbEntity
  8
1
  6
Continuous
 62
     3
100
AcDbLine
 10
-10.0
 20
84.5
 30
0.0
 11
-14.0
 21
84.5
 31
0.0
  0
LINE
  5
1D3
330
1F
100
AcDbEntity
  8
1
  6
Continuous
 62
     3
100
AcDbLine
 10
-14.0
 20
84.5
 30
0.0
 11
-14.0
 21
81.5
 31
0.0
  0
LINE
  5
1D4
330
1F
100
AcDbEntity
  8
1
  6
Continuous
 62
     3
100
AcDbLine
 10
-10.0
 20
77.5
 30
0.0
 11
14.0
 21
77.5
 31
0.0
  0
LINE
  5
1D5
330
1F
100
AcDbEntity
  8
1
  6
Continuous
 62
     3
100
AcDbLine
 10
14.0
 20
97.5
 30
0.0
 11
12.0
 21
97.5
 31
0.0
  0
LINE
  5
1D6
330
1F
100
AcDbEntity
  8
1
  6
Continuous
 62
     3
100
AcDbLine
 10
12.0
 20
97.5
 30
0.0
 11
9.17157287525379
 21
100.328427124746
 31
0.0
  0
LINE
  5
1D7
330
1F
100
AcDbEntity
  8
1
  6
Continuous
 62
     3
100
AcDbLine
 10
3.0
 20
101.5
 30
0.0
 11
6.34314575050763
 21
101.5
 31
0.0
  0
LINE
  5
1D8
330
1F
100
AcDbEntity
  8
1
  6
Continuous
 62
     3
100
AcDbLine
 10
19.2
 20
95.0
 30
0.0
 11
14.0
 21
97.5
 31
0.0
  0
LINE
  5
1D9
330
1F
100
AcDbEntity
  8
1
  6
Continuous
 62
     3
100
AcDbLine
 10
19.2
 20
80.0
 30
0.0
 11
14.0
 21
77.5
 31
0.0
  0
LINE
  5
1DA
330
1F
100
AcDbEntity
  8
1
  6
Continuous
 62
     3
100
AcDbLine
 10
14.0
 20
96.0
 30
0.0
 11
14.0
 21
79.0
 31
0.0
  0
LINE
  5
1DB
330
1F
100
AcDbEntity
  8
1
  6
Continuous
 62
     3
100
AcDbLine
 10
-3.90763675384494
 20
83.44
 30
0.0
 11
3.90763675384494
 21
83.44
 31
0.0
  0
LINE
  5
1DC
330
1F
100
AcDbEntity
  8
1
  6
Continuous
 62
     3
100
AcDbLine
 10
3.90763675384494
 20
91.5599999999999
 30
0.0
 11
-3.90763675384494
 21
91.5599999999999
 31
0.0
  0
LINE
  5
1DD
330
1F
100
AcDbEntity
  8
1
  6
DOT_CENTER
 62
     3
100
AcDbLine
 10
2.5
 20
101.5
 30
0.0
 11
-4.1603460408644
 21
101.5
 31
0.0
  0
LINE
  5
1DE
330
1F
100
AcDbEntity
  8
0
  6
Continuous
 62
     3
100
AcDbLine
 10
-10.6251840891797
 20
84.6529905038723
 30
0.0
 11
-10.5841904072174
 21
84.5
 31
0.0
  0
LINE
  5
1DF
102
{ACAD_REACTORS
330
359
102
}
330
1F
100
AcDbEntity
  8
1
  6
Continuous
 62
     3
100
AcDbLine
 10
56.2819362557022
 20
89.1965846374399
 30
0.0
 11
56.9254683595589
 21
87.5
 31
0.0
  0
LINE
  5
1E0
102
{ACAD_REACTORS
330
359
102
}
330
1F
100
AcDbEntity
  8
1
  6
Continuous
 62
     3
100
AcDbLine
 10
58.7912359353396
 20
89.1965846374399
 30
0.0
 11
58.7912359353396
 21
87.5
 31
0.0
  0
LINE
  5
1E1
102
{ACAD_REACTORS
330
359
102
}
330
1F
100
AcDbEntity
  8
1
  6
Continuous
 62
     3
100
AcDbLine
 10
58.563429234727
 20
89.1965846374399
 30
0.0
 11
58.7912359353396
 21
89.1965846374399
 31
0.0
  0
LINE
  5
1E2
102
{ACAD_REACTORS
330
359
102
}
330
1F
100
AcDbEntity
  8
1
  6
Continuous
 62
     3
100
AcDbLine
 10
56.0589375140917
 20
89.1965846374399
 30
0.0
 11
56.2819362557022
 21
89.1965846374399
 31
0.0
  0
LINE
  5
1E3
102
{ACAD_REACTORS
330
358
102
}
330
1F
100
AcDbEntity
  8
1
  6
Continuous
 62
     3
100
AcDbLine
 10
64.8826183844915
 20
89.0942909818879
 30
0.0
 11
64.8826183844916
 21
87.5
 31
0.0
  0
LINE
  5
1E4
102
{ACAD_REACTORS
330
358
102
}
330
1F
100
AcDbEntity
  8
1
  6
Continuous
 62
     3
100
AcDbLine
 10
64.8826183844916
 20
87.5
 30
0.0
 11
65.7368348632116
 21
87.5
 31
0.0
  0
LINE
  5
1E5
102
{ACAD_REACTORS
330
358
102
}
330
1F
100
AcDbEntity
  8
1
  6
Continuous
 62
     3
100
AcDbLine
 10
65.7368348632116
 20
89.0942909818879
 30
0.0
 11
65.7368348632116
 21
87.5
 31
0.0
  0
LINE
  5
1E6
102
{ACAD_REACTORS
330
358
102
}
330
1F
100
AcDbEntity
  8
1
  6
Continuous
 62
     3
100
AcDbLine
 10
64.8826183844915
 20
89.0942909818879
 30
0.0
 11
65.7368348632116
 21
89.0942909818879
 31
0.0
  0
LINE
  5
1E7
102
{ACAD_REACTORS
330
357
102
}
330
1F
100
AcDbEntity
  8
1
  6
Continuous
 62
     3
100
AcDbLine
 10
62.7030171309558
 20
88.183430054912
 30
0.0
 11
61.4640653573475
 21
88.183430054912
 31
0.0
  0
LINE
  5
1E8
102
{ACAD_REACTORS
330
357
102
}
330
1F
100
AcDbEntity
  8
1
  6
Continuous
 62
     3
100
AcDbLine
 10
62.108320279624
 20
89.1745914737985
 30
0.0
 11
62.7030171309558
 21
88.183430054912
 31
0.0
  0
LINE
  5
1E9
102
{ACAD_REACTORS
330
357
102
}
330
1F
100
AcDbEntity
  8
1
  6
Continuous
 62
     3
100
AcDbLine
 10
61.4640653573475
 20
88.183430054912
 30
0.0
 11
62.108320279624
 21
89.1745914737985
 31
0.0
  0
LINE
  5
1EA
102
{ACAD_REACTORS
330
357
102
}
330
1F
100
AcDbEntity
  8
1
  6
Continuous
 62
     3
100
AcDbLine
 10
60.4481267165444
 20
87.5
 30
0.0
 11
61.0198358216547
 21
87.5
 31
0.0
  0
LINE
  5
1EB
102
{ACAD_REACTORS
330
357
102
}
330
1F
100
AcDbEntity
  8
1
  6
Continuous
 62
     3
100
AcDbLine
 10
61.0198358216547
 20
87.5
 30
0.0
 11
61.315865622922
 21
87.955430463488
 31
0.0
  0
LINE
  5
1EC
102
{ACAD_REACTORS
330
357
102
}
330
1F
100
AcDbEntity
  8
1
  6
Continuous
 62
     3
100
AcDbLine
 10
61.315865622922
 20
87.955430463488
 30
0.0
 11
62.8398168858101
 21
87.955430463488
 31
0.0
  0
LINE
  5
1ED
102
{ACAD_REACTORS
330
357
102
}
330
1F
100
AcDbEntity
  8
1
  6
Continuous
 62
     3
100
AcDbLine
 10
62.8398168858101
 20
87.955430463488
 30
0.0
 11
63.113075163903
 21
87.5
 31
0.0
  0
LINE
  5
1EE
102
{ACAD_REACTORS
330
357
102
}
330
1F
100
AcDbEntity
  8
1
  6
Continuous
 62
     3
100
AcDbLine
 10
63.113075163903
 20
87.5
 30
0.0
 11
64.1477490313841
 21
87.5
 31
0.0
  0
LINE
  5
1EF
102
{ACAD_REACTORS
330
357
102
}
330
1F
100
AcDbEntity
  8
1
  6
Continuous
 62
     3
100
AcDbLine
 10
62.9520734489202
 20
89.49279263744
 30
0.0
 11
64.1477490313841
 21
87.5
 31
0.0
  0
LINE
  5
1F0
102
{ACAD_REACTORS
330
357
102
}
330
1F
100
AcDbEntity
  8
1
  6
Continuous
 62
     3
100
AcDbLine
 10
61.7434419308804
 20
89.49279263744
 30
0.0
 11
62.9520734489202
 21
89.49279263744
 31
0.0
  0
LINE
  5
1F1
102
{ACAD_REACTORS
330
357
102
}
330
1F
100
AcDbEntity
  8
1
  6
Continuous
 62
     3
100
AcDbLine
 10
60.4481267165444
 20
87.5
 30
0.0
 11
61.7434419308804
 21
89.49279263744
 31
0.0
  0
LINE
  5
1F2
102
{ACAD_REACTORS
330
359
102
}
330
1F
100
AcDbEntity
  8
1
  6
Continuous
 62
     3
100
AcDbLine
 10
55.5462938829876
 20
89.49279263744
 30
0.0
 11
55.5462938829876
 21
87.5
 31
0.0
  0
LINE
  5
1F3
102
{ACAD_REACTORS
330
359
102
}
330
1F
100
AcDbEntity
  8
1
  6
Continuous
 62
     3
100
AcDbLine
 10
55.5462938829876
 20
87.5
 30
0.0
 11
56.0589375140917
 21
87.5
 31
0.0
  0
LINE
  5
1F4
102
{ACAD_REACTORS
330
359
102
}
330
1F
100
AcDbEntity
  8
1
  6
Continuous
 62
     3
100
AcDbLine
 10
56.0589375140917
 20
87.5
 30
0.0
 11
56.0589375140917
 21
89.1965846374399
 31
0.0
  0
LINE
  5
1F5
102
{ACAD_REACTORS
330
359
102
}
330
1F
100
AcDbEntity
  8
1
  6
Continuous
 62
     3
100
AcDbLine
 10
56.9254683595589
 20
87.5
 30
0.0
 11
57.9784000494027
 21
87.5
 31
0.0
  0
LINE
  5
1F6
102
{ACAD_REACTORS
330
359
102
}
330
1F
100
AcDbEntity
  8
1
  6
Continuous
 62
     3
100
AcDbLine
 10
57.9784000494027
 20
87.5
 30
0.0
 11
58.563429234727
 21
89.1965846374399
 31
0.0
  0
LINE
  5
1F7
102
{ACAD_REACTORS
330
359
102
}
330
1F
100
AcDbEntity
  8
1
  6
Continuous
 62
     3
100
AcDbLine
 10
58.7912359353396
 20
87.5
 30
0.0
 11
59.6454524140595
 21
87.5
 31
0.0
  0
LINE
  5
1F8
102
{ACAD_REACTORS
330
359
102
}
330
1F
100
AcDbEntity
  8
1
  6
Continuous
 62
     3
100
AcDbLine
 10
59.6454524140595
 20
89.49279263744
 30
0.0
 11
59.6454524140595
 21
87.5
 31
0.0
  0
LINE
  5
1F9
102
{ACAD_REACTORS
330
359
102
}
330
1F
100
AcDbEntity
  8
1
  6
Continuous
 62
     3
100
AcDbLine
 10
58.1273685344788
 20
89.49279263744
 30
0.0
 11
59.6454524140595
 21
89.49279263744
 31
0.0
  0
LINE
  5
1FA
102
{ACAD_REACTORS
330
359
102
}
330
1F
100
AcDbEntity
  8
1
  6
Continuous
 62
     3
100
AcDbLine
 10
58.1273685344788
 20
89.49279263744
 30
0.0
 11
57.5958731485235
 21
87.7920074023832
 31
0.0
  0
LINE
  5
1FB
102
{ACAD_REACTORS
330
359
102
}
330
1F
100
AcDbEntity
  8
1
  6
Continuous
 62
     3
100
AcDbLine
 10
57.5958731485235
 20
87.7920074023832
 30
0.0
 11
57.0643777625685
 21
89.49279263744
 31
0.0
  0
LINE
  5
1FC
102
{ACAD_REACTORS
330
359
102
}
330
1F
100
AcDbEntity
  8
1
  6
Continuous
 62
     3
100
AcDbLine
 10
55.5462938829876
 20
89.49279263744
 30
0.0
 11
57.0643777625685
 21
89.49279263744
 31
0.0
  0
LINE
  5
1FD
102
{ACAD_REACTORS
330
356
102
}
330
1F
100
AcDbEntity
  8
1
  6
Continuous
 62
     3
100
AcDbLine
 10
52.1277408558436
 20
88.183430054912
 30
0.0
 11
52.7719957781199
 21
89.1745914737985
 31
0.0
  0
LINE
  5
1FE
102
{ACAD_REACTORS
330
356
102
}
330
1F
100
AcDbEntity
  8
1
  6
Continuous
 62
     3
100
AcDbLine
 10
53.3666926294518
 20
88.183430054912
 30
0.0
 11
52.1277408558436
 21
88.183430054912
 31
0.0
  0
LINE
  5
1FF
102
{ACAD_REACTORS
330
356
102
}
330
1F
100
AcDbEntity
  8
1
  6
Continuous
 62
     3
100
AcDbLine
 10
52.7719957781199
 20
89.1745914737985
 30
0.0
 11
53.3666926294518
 21
88.183430054912
 31
0.0
  0
LINE
  5
200
102
{ACAD_REACTORS
330
356
102
}
330
1F
100
AcDbEntity
  8
1
  6
Continuous
 62
     3
100
AcDbLine
 10
51.1118022150404
 20
87.5
 30
0.0
 11
52.4071174293764
 21
89.49279263744
 31
0.0
  0
LINE
  5
201
102
{ACAD_REACTORS
330
356
102
}
330
1F
100
AcDbEntity
  8
1
  6
Continuous
 62
     3
100
AcDbLine
 10
51.1118022150404
 20
87.5
 30
0.0
 11
51.6835113201507
 21
87.5
 31
0.0
  0
LINE
  5
202
102
{ACAD_REACTORS
330
356
102
}
330
1F
100
AcDbEntity
  8
1
  6
Continuous
 62
     3
100
AcDbLine
 10
51.6835113201507
 20
87.5
 30
0.0
 11
51.9795411214179
 21
87.955430463488
 31
0.0
  0
LINE
  5
203
102
{ACAD_REACTORS
330
356
102
}
330
1F
100
AcDbEntity
  8
1
  6
Continuous
 62
     3
100
AcDbLine
 10
51.9795411214179
 20
87.955430463488
 30
0.0
 11
53.5034923843061
 21
87.955430463488
 31
0.0
  0
LINE
  5
204
102
{ACAD_REACTORS
330
356
102
}
330
1F
100
AcDbEntity
  8
1
  6
Continuous
 62
     3
100
AcDbLine
 10
53.5034923843061
 20
87.955430463488
 30
0.0
 11
53.7767506623988
 21
87.5
 31
0.0
  0
LINE
  5
205
102
{ACAD_REACTORS
330
356
102
}
330
1F
100
AcDbEntity
  8
1
  6
Continuous
 62
     3
100
AcDbLine
 10
53.7767506623988
 20
87.5
 30
0.0
 11
54.8114245298802
 21
87.5
 31
0.0
  0
LINE
  5
206
102
{ACAD_REACTORS
330
356
102
}
330
1F
100
AcDbEntity
  8
1
  6
Continuous
 62
     3
100
AcDbLine
 10
53.6157489474163
 20
89.49279263744
 30
0.0
 11
54.8114245298802
 21
87.5
 31
0.0
  0
LINE
  5
207
102
{ACAD_REACTORS
330
356
102
}
330
1F
100
AcDbEntity
  8
1
  6
Continuous
 62
     3
100
AcDbLine
 10
52.4071174293764
 20
89.49279263744
 30
0.0
 11
53.6157489474163
 21
89.49279263744
 31
0.0
  0
LINE
  5
208
102
{ACAD_REACTORS
330
355
102
}
330
1F
100
AcDbEntity
  8
1
  6
Continuous
 62
     3
100
AcDbLine
 10
47.0639015005236
 20
89.49279263744
 30
0.0
 11
47.0639015005236
 21
87.5
 31
0.0
  0
LINE
  5
209
102
{ACAD_REACTORS
330
355
102
}
330
1F
100
AcDbEntity
  8
1
  6
Continuous
 62
     3
100
AcDbLine
 10
47.0639015005236
 20
87.5
 30
0.0
 11
47.9181179792436
 21
87.5
 31
0.0
  0
LINE
  5
20A
102
{ACAD_REACTORS
330
355
102
}
330
1F
100
AcDbEntity
  8
1
  6
Continuous
 62
     3
100
AcDbLine
 10
47.9181179792436
 20
87.5
 30
0.0
 11
47.9181179792436
 21
88.35393211904
 31
0.0
  0
LINE
  5
20B
102
{ACAD_REACTORS
330
355
102
}
330
1F
100
AcDbEntity
  8
1
  6
Continuous
 62
     3
100
AcDbLine
 10
47.9181179792436
 20
88.35393211904
 30
0.0
 11
49.4549114338356
 21
88.35393211904
 31
0.0
  0
LINE
  5
20C
102
{ACAD_REACTORS
330
355
102
}
330
1F
100
AcDbEntity
  8
1
  6
Continuous
 62
     3
100
AcDbLine
 10
49.4549114338356
 20
88.35393211904
 30
0.0
 11
49.4549114338356
 21
87.5
 31
0.0
  0
LINE
  5
20D
102
{ACAD_REACTORS
330
355
102
}
330
1F
100
AcDbEntity
  8
1
  6
Continuous
 62
     3
100
AcDbLine
 10
49.4549114338356
 20
87.5
 30
0.0
 11
50.3091279125556
 21
87.5
 31
0.0
  0
LINE
  5
20E
102
{ACAD_REACTORS
330
355
102
}
330
1F
100
AcDbEntity
  8
1
  6
Continuous
 62
     3
100
AcDbLine
 10
50.3091279125556
 20
89.49279263744
 30
0.0
 11
50.3091279125556
 21
87.5
 31
0.0
  0
LINE
  5
20F
102
{ACAD_REACTORS
330
355
102
}
330
1F
100
AcDbEntity
  8
1
  6
Continuous
 62
     3
100
AcDbLine
 10
49.4549114338356
 20
89.49279263744
 30
0.0
 11
50.3091279125556
 21
89.49279263744
 31
0.0
  0
LINE
  5
210
102
{ACAD_REACTORS
330
355
102
}
330
1F
100
AcDbEntity
  8
1
  6
Continuous
 62
     3
100
AcDbLine
 10
49.4549114338356
 20
89.49279263744
 30
0.0
 11
49.4549114338356
 21
88.6388605183999
 31
0.0
  0
LINE
  5
211
102
{ACAD_REACTORS
330
355
102
}
330
1F
100
AcDbEntity
  8
1
  6
Continuous
 62
     3
100
AcDbLine
 10
47.9181179792436
 20
88.6388605183999
 30
0.0
 11
49.4549114338356
 21
88.6388605183999
 31
0.0
  0
LINE
  5
212
102
{ACAD_REACTORS
330
355
102
}
330
1F
100
AcDbEntity
  8
1
  6
Continuous
 62
     3
100
AcDbLine
 10
47.9181179792436
 20
88.6388605183999
 30
0.0
 11
47.9181179792436
 21
89.49279263744
 31
0.0
  0
LINE
  5
213
102
{ACAD_REACTORS
330
355
102
}
330
1F
100
AcDbEntity
  8
1
  6
Continuous
 62
     3
100
AcDbLine
 10
47.0639015005236
 20
89.49279263744
 30
0.0
 11
47.9181179792436
 21
89.49279263744
 31
0.0
  0
LINE
  5
214
102
{ACAD_REACTORS
330
354
102
}
330
1F
100
AcDbEntity
  8
1
  6
Continuous
 62
     3
100
AcDbLine
 10
43.5
 20
89.4874999999999
 30
0.0
 11
43.5
 21
85.5125
 31
0.0
  0
LINE
  5
215
102
{ACAD_REACTORS
330
354
102
}
330
1F
100
AcDbEntity
  8
1
  6
Continuous
 62
     3
100
AcDbLine
 10
45.0
 20
89.4874999999999
 30
0.0
 11
43.5
 21
89.4874999999999
 31
0.0
  0
LINE
  5
216
102
{ACAD_REACTORS
330
354
102
}
330
1F
100
AcDbEntity
  8
1
  6
Continuous
 62
     3
100
AcDbLine
 10
45.0
 20
85.5125
 30
0.0
 11
45.0
 21
89.4874999999999
 31
0.0
  0
LINE
  5
217
102
{ACAD_REACTORS
330
354
102
}
330
1F
100
AcDbEntity
  8
1
  6
Continuous
 62
     3
100
AcDbLine
 10
43.5
 20
85.5125
 30
0.0
 11
45.0
 21
85.5125
 31
0.0
  0
LINE
  5
218
102
{ACAD_REACTORS
330
353
102
}
330
1F
100
AcDbEntity
  8
1
  6
Continuous
 62
     3
100
AcDbLine
 10
41.25
 20
89.4874999999999
 30
0.0
 11
41.25
 21
85.5125
 31
0.0
  0
LINE
  5
219
102
{ACAD_REACTORS
330
353
102
}
330
1F
100
AcDbEntity
  8
1
  6
Continuous
 62
     3
100
AcDbLine
 10
42.75
 20
89.4874999999999
 30
0.0
 11
41.25
 21
89.4874999999999
 31
0.0
  0
LINE
  5
21A
102
{ACAD_REACTORS
330
353
102
}
330
1F
100
AcDbEntity
  8
1
  6
Continuous
 62
     3
100
AcDbLine
 10
42.75
 20
85.5125
 30
0.0
 11
42.75
 21
89.4874999999999
 31
0.0
  0
LINE
  5
21B
102
{ACAD_REACTORS
330
353
102
}
330
1F
100
AcDbEntity
  8
1
  6
Continuous
 62
     3
100
AcDbLine
 10
41.25
 20
85.5125
 30
0.0
 11
42.75
 21
85.5125
 31
0.0
  0
LINE
  5
21C
102
{ACAD_REACTORS
330
352
102
}
330
1F
100
AcDbEntity
  8
1
  6
Continuous
 62
     3
100
AcDbLine
 10
39.0
 20
89.4874999999999
 30
0.0
 11
39.0
 21
85.5125
 31
0.0
  0
LINE
  5
21D
102
{ACAD_REACTORS
330
352
102
}
330
1F
100
AcDbEntity
  8
1
  6
Continuous
 62
     3
100
AcDbLine
 10
40.5
 20
89.4874999999999
 30
0.0
 11
39.0
 21
89.4874999999999
 31
0.0
  0
LINE
  5
21E
102
{ACAD_REACTORS
330
352
102
}
330
1F
100
AcDbEntity
  8
1
  6
Continuous
 62
     3
100
AcDbLine
 10
40.5
 20
85.5125
 30
0.0
 11
40.5
 21
89.4874999999999
 31
0.0
  0
LINE
  5
21F
102
{ACAD_REACTORS
330
352
102
}
330
1F
100
AcDbEntity
  8
1
  6
Continuous
 62
     3
100
AcDbLine
 10
39.0
 20
85.5125
 30
0.0
 11
40.5
 21
85.5125
 31
0.0
  0
LINE
  5
220
102
{ACAD_REACTORS
330
35A
102
}
330
1F
100
AcDbEntity
  8
1
  6
Continuous
 62
     3
100
AcDbLine
 10
30.0
 20
84.8999999999999
 30
0.0
 11
33.0
 21
86.2999999999999
 31
0.0
  0
LINE
  5
221
102
{ACAD_REACTORS
330
35A
102
}
330
1F
100
AcDbEntity
  8
1
  6
Continuous
 62
     3
100
AcDbLine
 10
30.0
 20
84.8999999999999
 30
0.0
 11
33.0
 21
83.5
 31
0.0
  0
LINE
  5
222
102
{ACAD_REACTORS
330
35A
102
}
330
1F
100
AcDbEntity
  8
1
  6
Continuous
 62
     3
100
AcDbLine
 10
33.0
 20
86.2999999999999
 30
0.0
 11
33.0
 21
85.3999999999999
 31
0.0
  0
LINE
  5
223
102
{ACAD_REACTORS
330
35A
102
}
330
1F
100
AcDbEntity
  8
1
  6
Continuous
 62
     3
100
AcDbLine
 10
33.0
 20
84.3999999999999
 30
0.0
 11
33.0
 21
83.5
 31
0.0
  0
LINE
  5
224
102
{ACAD_REACTORS
330
35A
102
}
330
1F
100
AcDbEntity
  8
1
  6
Continuous
 62
     3
100
AcDbLine
 10
33.0
 20
85.3999999999999
 30
0.0
 11
34.4
 21
85.3999999999999
 31
0.0
  0
LINE
  5
225
102
{ACAD_REACTORS
330
35A
102
}
330
1F
100
AcDbEntity
  8
1
  6
Continuous
 62
     3
100
AcDbLine
 10
36.1
 20
92.0
 30
0.0
 11
37.5
 21
89.0
 31
0.0
  0
LINE
  5
226
102
{ACAD_REACTORS
330
35A
102
}
330
1F
100
AcDbEntity
  8
1
  6
Continuous
 62
     3
100
AcDbLine
 10
36.1
 20
92.0
 30
0.0
 11
34.7000000000001
 21
89.0
 31
0.0
  0
LINE
  5
227
102
{ACAD_REACTORS
330
35A
102
}
330
1F
100
AcDbEntity
  8
1
  6
Continuous
 62
     3
100
AcDbLine
 10
37.5
 20
89.0
 30
0.0
 11
36.6
 21
89.0
 31
0.0
  0
LINE
  5
228
102
{ACAD_REACTORS
330
35A
102
}
330
1F
100
AcDbEntity
  8
1
  6
Continuous
 62
     3
100
AcDbLine
 10
35.6
 20
89.0
 30
0.0
 11
34.7000000000001
 21
89.0
 31
0.0
  0
LINE
  5
229
102
{ACAD_REACTORS
330
35A
102
}
330
1F
100
AcDbEntity
  8
1
  6
Continuous
 62
     3
100
AcDbLine
 10
35.6
 20
89.0
 30
0.0
 11
35.6
 21
86.6
 31
0.0
  0
LINE
  5
22A
102
{ACAD_REACTORS
330
35A
102
}
330
1F
100
AcDbEntity
  8
1
  6
Continuous
 62
     3
100
AcDbLine
 10
36.6
 20
86.3999999999999
 30
0.0
 11
36.6
 21
89.0
 31
0.0
  0
LINE
  5
22B
102
{ACAD_REACTORS
330
35A
102
}
330
1F
100
AcDbEntity
  8
1
  6
Continuous
 62
     3
100
AcDbLine
 10
34.6
 20
84.3999999999999
 30
0.0
 11
33.0
 21
84.3999999999999
 31
0.0
  0
LINE
  5
22C
330
1F
100
AcDbEntity
  8
1
  6
Continuous
 62
     3
100
AcDbLine
 10
24.1036297108184
 20
93.8267116350928
 30
0.0
 11
24.1036297108184
 21
81.1732883649072
 31
0.0
  0
LINE
  5
22D
330
1F
100
AcDbEntity
  8
1
  6
Continuous
 62
     3
100
AcDbLine
 10
76.8686694224643
 20
81.4678903841191
 30
0.0
 11
77.8299235967079
 21
84.1089145222097
 31
0.0
  0
LINE
  5
22E
330
1F
100
AcDbEntity
  8
1
  6
Continuous
 62
     3
100
AcDbLine
 10
77.8299235967078
 20
90.8910854777904
 30
0.0
 11
76.8686694224643
 21
93.5321096158808
 31
0.0
  0
LINE
  5
22F
330
1F
100
AcDbEntity
  8
1
  6
Continuous
 62
     3
100
AcDbLine
 10
20.0
 20
80.8286657365615
 30
0.0
 11
20.0
 21
94.1713342634385
 31
0.0
  0
LINE
  5
230
330
1F
100
AcDbEntity
  8
1
  6
Continuous
 62
     3
100
AcDbLine
 10
76.2355180051832
 20
93.9922619489626
 30
0.0
 11
28.3
 21
95.6801868702201
 31
0.0
  0
LINE
  5
231
330
1F
100
AcDbEntity
  8
1
  6
Continuous
 62
     3
100
AcDbLine
 10
76.2355180051832
 20
81.0077380510374
 30
0.0
 11
40.2999999999999
 21
79.7423620016393
 31
0.0
  0
LINE
  5
232
330
1F
100
AcDbEntity
  8
1
  6
DOT_CENTER
 62
     3
100
AcDbLine
 10
67.5085101616301
 20
87.4999999999999
 30
0.0
 11
82.2261955126917
 21
87.4999999999999
 31
0.0
  0
LINE
  5
233
330
1F
100
AcDbEntity
  8
1
  6
DOT_CENTER
 62
     3
100
AcDbLine
 10
-94.9444316872033
 20
30.0477996163012
 30
0.0
 11
-94.9444316872033
 21
36.8537789087912
 31
0.0
  0
LINE
  5
234
330
1F
100
AcDbEntity
  8
1
  6
Continuous
 62
     3
100
AcDbLine
 10
-87.4444316872033
 20
37.9773502691896
 30
0.0
 11
-87.4444316872033
 21
41.8226497308104
 31
0.0
  0
LINE
  5
235
330
1F
100
AcDbEntity
  8
1
  6
Continuous
 62
     3
100
AcDbLine
 10
-87.4444316872033
 20
41.8226497308104
 30
0.0
 11
-86.4444316872033
 21
42.4
 31
0.0
  0
LINE
  5
236
330
1F
100
AcDbEntity
  8
1
  6
Continuous
 62
     3
100
AcDbLine
 10
-74.4444316872033
 20
41.8226497308104
 30
0.0
 11
-74.4444316872033
 21
37.9773502691896
 31
0.0
  0
LINE
  5
237
330
1F
100
AcDbEntity
  8
1
  6
Continuous
 62
     3
100
AcDbLine
 10
-75.4444316872033
 20
42.4
 30
0.0
 11
-74.4444316872033
 21
41.8226497308104
 31
0.0
  0
LINE
  5
238
330
1F
100
AcDbEntity
  8
1
  6
Continuous
 62
     3
100
AcDbLine
 10
-80.9444316872033
 20
41.8226497308104
 30
0.0
 11
-80.9444316872033
 21
37.9773502691896
 31
0.0
  0
LINE
  5
239
330
1F
100
AcDbEntity
  8
1
  6
Continuous
 62
     3
100
AcDbLine
 10
-81.2444316872033
 20
43.152742391576
 30
0.0
 11
-80.6444316872033
 21
43.152742391576
 31
0.0
  0
LINE
  5
23A
330
1F
100
AcDbEntity
  8
1
  6
Continuous
 62
     3
100
AcDbLine
 10
-80.6444316872033
 20
43.152742391576
 30
0.0
 11
-77.7444316872033
 21
43.152742391576
 31
0.0
  0
LINE
  5
23B
330
1F
100
AcDbEntity
  8
1
  6
Continuous
 62
     3
100
AcDbLine
 10
-80.9444316872033
 20
42.4284783228641
 30
0.0
 11
-81.2444316872033
 21
43.152742391576
 31
0.0
  0
LINE
  5
23C
330
1F
100
AcDbEntity
  8
1
  6
Continuous
 62
     3
100
AcDbLine
 10
-80.9444316872033
 20
42.4284783228641
 30
0.0
 11
-80.6444316872033
 21
43.152742391576
 31
0.0
  0
LINE
  5
23D
330
1F
100
AcDbEntity
  8
1
  6
Continuous
 62
     3
100
AcDbLine
 10
-84.1444316872034
 20
43.152742391576
 30
0.0
 11
-81.2444316872033
 21
43.152742391576
 31
0.0
  0
LINE
  5
23E
330
1F
100
AcDbEntity
  8
1
  6
Continuous
 62
     3
100
AcDbLine
 10
-84.8971740787793
 20
42.4
 30
0.0
 11
-84.1444316872034
 21
43.152742391576
 31
0.0
  0
LINE
  5
23F
330
1F
100
AcDbEntity
  8
1
  6
Continuous
 62
     3
100
AcDbLine
 10
-77.7444316872033
 20
43.152742391576
 30
0.0
 11
-76.9916892956273
 21
42.4
 31
0.0
  0
LINE
  5
240
330
1F
100
AcDbEntity
  8
1
  6
Continuous
 62
     3
100
AcDbLine
 10
-86.4444316872033
 20
37.4
 30
0.0
 11
-87.4444316872033
 21
37.9773502691896
 31
0.0
  0
LINE
  5
241
330
1F
100
AcDbEntity
  8
1
  6
Continuous
 62
     3
100
AcDbLine
 10
-84.9444316872033
 20
37.4
 30
0.0
 11
-87.4444316872033
 21
37.4
 31
0.0
  0
LINE
  5
242
330
1F
100
AcDbEntity
  8
1
  6
Continuous
 62
     3
100
AcDbLine
 10
-74.4444316872033
 20
37.9773502691896
 30
0.0
 11
-75.4444316872033
 21
37.4
 31
0.0
  0
LINE
  5
243
330
1F
100
AcDbEntity
  8
1
  6
Continuous
 62
     3
100
AcDbLine
 10
-86.4444316872033
 20
42.4
 30
0.0
 11
-75.4444316872033
 21
42.4
 31
0.0
  0
LINE
  5
244
330
1F
100
AcDbEntity
  8
1
  6
DOT_CENTER
 62
     3
100
AcDbLine
 10
-80.9444316872033
 20
54.6125098758572
 30
0.0
 11
-80.9444316872033
 21
-24.0
 31
0.0
  0
LINE
  5
245
330
1F
100
AcDbEntity
  8
1
  6
DOT_CENTER
 62
     3
100
AcDbLine
 10
-57.9444316872033
 20
0.00000000000003
 30
0.0
 11
-54.9444316872033
 21
0.00000000000004
 31
0.0
  0
LINE
  5
246
330
1F
100
AcDbEntity
  8
1
  6
Continuous
 62
     3
100
AcDbLine
 10
-57.9444316872033
 20
0.00000000000003
 30
0.0
 11
-57.3349038096854
 21
0.00000000000002
 31
0.0
  0
LINE
  5
247
330
1F
100
AcDbEntity
  8
1
  6
DOT_CENTER
 62
     3
100
AcDbLine
 10
-59.498976304915
 20
0.00000000000002
 30
0.0
 11
-57.9444316872033
 21
0.00000000000003
 31
0.0
  0
LINE
  5
248
330
1F
100
AcDbEntity
  8
1
  6
Continuous
 62
     3
100
AcDbLine
 10
-98.3501325308874
 20
-4.58710999870041
 30
0.0
 11
-98.3501325308874
 21
-12.5279341750304
 31
0.0
  0
LINE
  5
249
330
1F
100
AcDbEntity
  8
1
  6
Continuous
 62
     3
100
AcDbLine
 10
15.2189819138693
 20
-34.3366486287765
 30
0.0
 11
15.2189819138693
 21
-33.1491486287765
 31
0.0
  0
LINE
  5
24A
330
1F
100
AcDbEntity
  8
1
  6
Continuous
 62
     3
100
AcDbLine
 10
15.2189819138693
 20
-31.8366486287765
 30
0.0
 11
16.2189819138693
 21
-31.8366486287765
 31
0.0
  0
LINE
  5
24B
330
1F
100
AcDbEntity
  8
1
  6
Continuous
 62
     3
100
AcDbLine
 10
16.2189819138693
 20
-31.8366486287765
 30
0.0
 11
16.4689819138693
 21
-32.0241486287765
 31
0.0
  0
LINE
  5
24C
330
1F
100
AcDbEntity
  8
1
  6
Continuous
 62
     3
100
AcDbLine
 10
16.4689819138693
 20
-32.0241486287765
 30
0.0
 11
16.6564819138693
 21
-32.2741486287765
 31
0.0
  0
LINE
  5
24D
330
1F
100
AcDbEntity
  8
1
  6
Continuous
 62
     3
100
AcDbLine
 10
16.6564819138693
 20
-32.2741486287765
 30
0.0
 11
16.7189819138693
 21
-32.5241486287765
 31
0.0
  0
LINE
  5
24E
330
1F
100
AcDbEntity
  8
1
  6
Continuous
 62
     3
100
AcDbLine
 10
16.7189819138693
 20
-32.5241486287765
 30
0.0
 11
16.6564819138693
 21
-32.8366486287765
 31
0.0
  0
LINE
  5
24F
330
1F
100
AcDbEntity
  8
1
  6
Continuous
 62
     3
100
AcDbLine
 10
16.6564819138693
 20
-32.8366486287765
 30
0.0
 11
16.4689819138693
 21
-33.0241486287765
 31
0.0
  0
LINE
  5
250
330
1F
100
AcDbEntity
  8
1
  6
Continuous
 62
     3
100
AcDbLine
 10
16.4689819138693
 20
-33.0241486287765
 30
0.0
 11
16.2189819138693
 21
-33.1491486287765
 31
0.0
  0
LINE
  5
251
330
1F
100
AcDbEntity
  8
1
  6
Continuous
 62
     3
100
AcDbLine
 10
16.2189819138693
 20
-33.1491486287765
 30
0.0
 11
15.2189819138693
 21
-33.1491486287765
 31
0.0
  0
LINE
  5
252
330
1F
100
AcDbEntity
  8
1
  6
Continuous
 62
     3
100
AcDbLine
 10
16.2189819138693
 20
-33.1491486287765
 30
0.0
 11
16.7814819138693
 21
-34.3366486287765
 31
0.0
  0
LINE
  5
253
330
1F
100
AcDbEntity
  8
1
  6
Continuous
 62
     3
100
AcDbLine
 10
15.2189819138693
 20
-33.1491486287765
 30
0.0
 11
15.2189819138693
 21
-31.8366486287765
 31
0.0
  0
LINE
  5
254
330
1F
100
AcDbEntity
  8
1
  6
Continuous
 62
     3
100
AcDbLine
 10
19.5939819138693
 20
-32.3366486287765
 30
0.0
 11
19.4064819138693
 21
-32.0866486287765
 31
0.0
  0
LINE
  5
255
330
1F
100
AcDbEntity
  8
1
  6
Continuous
 62
     3
100
AcDbLine
 10
19.4064819138693
 20
-32.0866486287765
 30
0.0
 11
19.1564819138693
 21
-31.8991486287765
 31
0.0
  0
LINE
  5
256
330
1F
100
AcDbEntity
  8
1
  6
Continuous
 62
     3
100
AcDbLine
 10
19.1564819138693
 20
-31.8991486287765
 30
0.0
 11
18.8439819138693
 21
-31.8991486287765
 31
0.0
  0
LINE
  5
257
330
1F
100
AcDbEntity
  8
1
  6
Continuous
 62
     3
100
AcDbLine
 10
18.8439819138693
 20
-31.8991486287765
 30
0.0
 11
18.5939819138693
 21
-31.8991486287765
 31
0.0
  0
LINE
  5
258
330
1F
100
AcDbEntity
  8
1
  6
Continuous
 62
     3
100
AcDbLine
 10
18.5939819138693
 20
-31.8991486287765
 30
0.0
 11
18.4689819138693
 21
-32.0241486287765
 31
0.0
  0
LINE
  5
259
330
1F
100
AcDbEntity
  8
1
  6
Continuous
 62
     3
100
AcDbLine
 10
18.4689819138693
 20
-32.0241486287765
 30
0.0
 11
18.2189819138693
 21
-32.1491486287765
 31
0.0
  0
LINE
  5
25A
330
1F
100
AcDbEntity
  8
1
  6
Continuous
 62
     3
100
AcDbLine
 10
18.2189819138693
 20
-32.1491486287765
 30
0.0
 11
18.1564819138693
 21
-32.3991486287765
 31
0.0
  0
LINE
  5
25B
330
1F
100
AcDbEntity
  8
1
  6
Continuous
 62
     3
100
AcDbLine
 10
18.1564819138693
 20
-32.3991486287765
 30
0.0
 11
18.2189819138693
 21
-32.7741486287765
 31
0.0
  0
LINE
  5
25C
330
1F
100
AcDbEntity
  8
1
  6
Continuous
 62
     3
100
AcDbLine
 10
18.2189819138693
 20
-32.7741486287765
 30
0.0
 11
18.4064819138693
 21
-32.8991486287765
 31
0.0
  0
LINE
  5
25D
330
1F
100
AcDbEntity
  8
1
  6
Continuous
 62
     3
100
AcDbLine
 10
18.4064819138693
 20
-32.8991486287765
 30
0.0
 11
18.5314819138693
 21
-33.0241486287765
 31
0.0
  0
LINE
  5
25E
330
1F
100
AcDbEntity
  8
1
  6
Continuous
 62
     3
100
AcDbLine
 10
18.5314819138693
 20
-33.0241486287765
 30
0.0
 11
18.8439819138693
 21
-33.0866486287765
 31
0.0
  0
LINE
  5
25F
330
1F
100
AcDbEntity
  8
1
  6
Continuous
 62
     3
100
AcDbLine
 10
18.8439819138693
 20
-33.0866486287765
 30
0.0
 11
19.1564819138693
 21
-33.0866486287765
 31
0.0
  0
LINE
  5
260
330
1F
100
AcDbEntity
  8
1
  6
Continuous
 62
     3
100
AcDbLine
 10
19.1564819138693
 20
-33.0866486287765
 30
0.0
 11
19.3439819138693
 21
-33.1491486287765
 31
0.0
  0
LINE
  5
261
330
1F
100
AcDbEntity
  8
1
  6
Continuous
 62
     3
100
AcDbLine
 10
19.3439819138693
 20
-33.1491486287765
 30
0.0
 11
19.5939819138693
 21
-33.3991486287765
 31
0.0
  0
LINE
  5
262
330
1F
100
AcDbEntity
  8
1
  6
Continuous
 62
     3
100
AcDbLine
 10
19.5939819138693
 20
-33.3991486287765
 30
0.0
 11
19.6564819138693
 21
-33.7741486287765
 31
0.0
  0
LINE
  5
263
330
1F
100
AcDbEntity
  8
1
  6
Continuous
 62
     3
100
AcDbLine
 10
19.6564819138693
 20
-33.7741486287765
 30
0.0
 11
19.5939819138693
 21
-34.0866486287765
 31
0.0
  0
LINE
  5
264
330
1F
100
AcDbEntity
  8
1
  6
Continuous
 62
     3
100
AcDbLine
 10
19.5939819138693
 20
-34.0866486287765
 30
0.0
 11
19.3439819138693
 21
-34.2741486287765
 31
0.0
  0
LINE
  5
265
330
1F
100
AcDbEntity
  8
1
  6
Continuous
 62
     3
100
AcDbLine
 10
19.3439819138693
 20
-34.2741486287765
 30
0.0
 11
19.1564819138693
 21
-34.3366486287765
 31
0.0
  0
LINE
  5
266
330
1F
100
AcDbEntity
  8
1
  6
Continuous
 62
     3
100
AcDbLine
 10
19.1564819138693
 20
-34.3366486287765
 30
0.0
 11
18.8439819138693
 21
-34.3366486287765
 31
0.0
  0
LINE
  5
267
330
1F
100
AcDbEntity
  8
1
  6
Continuous
 62
     3
100
AcDbLine
 10
18.8439819138693
 20
-34.3366486287765
 30
0.0
 11
18.5314819138693
 21
-34.2741486287765
 31
0.0
  0
LINE
  5
268
330
1F
100
AcDbEntity
  8
1
  6
Continuous
 62
     3
100
AcDbLine
 10
18.5314819138693
 20
-34.2741486287765
 30
0.0
 11
18.3439819138693
 21
-34.0866486287765
 31
0.0
  0
LINE
  5
269
330
1F
100
AcDbEntity
  8
1
  6
Continuous
 62
     3
100
AcDbLine
 10
18.3439819138693
 20
-34.0866486287765
 30
0.0
 11
18.1564819138693
 21
-33.7741486287765
 31
0.0
  0
LINE
  5
26A
330
1F
100
AcDbEntity
  8
1
  6
Continuous
 62
     3
100
AcDbLine
 10
22.5314819138693
 20
-32.3366486287765
 30
0.0
 11
22.3439819138693
 21
-32.0866486287765
 31
0.0
  0
LINE
  5
26B
330
1F
100
AcDbEntity
  8
1
  6
Continuous
 62
     3
100
AcDbLine
 10
22.3439819138693
 20
-32.0866486287765
 30
0.0
 11
22.0939819138693
 21
-31.8991486287765
 31
0.0
  0
LINE
  5
26C
330
1F
100
AcDbEntity
  8
1
  6
Continuous
 62
     3
100
AcDbLine
 10
22.0939819138693
 20
-31.8991486287765
 30
0.0
 11
21.7814819138693
 21
-31.8991486287765
 31
0.0
  0
LINE
  5
26D
330
1F
100
AcDbEntity
  8
1
  6
Continuous
 62
     3
100
AcDbLine
 10
21.7814819138693
 20
-31.8991486287765
 30
0.0
 11
21.5314819138693
 21
-31.8991486287765
 31
0.0
  0
LINE
  5
26E
330
1F
100
AcDbEntity
  8
1
  6
Continuous
 62
     3
100
AcDbLine
 10
21.5314819138693
 20
-31.8991486287765
 30
0.0
 11
21.4064819138693
 21
-32.0241486287765
 31
0.0
  0
LINE
  5
26F
330
1F
100
AcDbEntity
  8
1
  6
Continuous
 62
     3
100
AcDbLine
 10
21.4064819138693
 20
-32.0241486287765
 30
0.0
 11
21.1564819138693
 21
-32.1491486287765
 31
0.0
  0
LINE
  5
270
330
1F
100
AcDbEntity
  8
1
  6
Continuous
 62
     3
100
AcDbLine
 10
21.1564819138693
 20
-32.1491486287765
 30
0.0
 11
21.0939819138693
 21
-32.3991486287765
 31
0.0
  0
LINE
  5
271
330
1F
100
AcDbEntity
  8
1
  6
Continuous
 62
     3
100
AcDbLine
 10
21.0939819138693
 20
-32.3991486287765
 30
0.0
 11
21.1564819138693
 21
-32.7741486287765
 31
0.0
  0
LINE
  5
272
330
1F
100
AcDbEntity
  8
1
  6
Continuous
 62
     3
100
AcDbLine
 10
21.1564819138693
 20
-32.7741486287765
 30
0.0
 11
21.3439819138693
 21
-32.8991486287765
 31
0.0
  0
LINE
  5
273
330
1F
100
AcDbEntity
  8
1
  6
Continuous
 62
     3
100
AcDbLine
 10
21.3439819138693
 20
-32.8991486287765
 30
0.0
 11
21.4689819138693
 21
-33.0241486287765
 31
0.0
  0
LINE
  5
274
330
1F
100
AcDbEntity
  8
1
  6
Continuous
 62
     3
100
AcDbLine
 10
21.4689819138693
 20
-33.0241486287765
 30
0.0
 11
21.7814819138693
 21
-33.0866486287765
 31
0.0
  0
LINE
  5
275
330
1F
100
AcDbEntity
  8
1
  6
Continuous
 62
     3
100
AcDbLine
 10
21.7814819138693
 20
-33.0866486287765
 30
0.0
 11
22.0939819138693
 21
-33.0866486287765
 31
0.0
  0
LINE
  5
276
330
1F
100
AcDbEntity
  8
1
  6
Continuous
 62
     3
100
AcDbLine
 10
22.0939819138693
 20
-33.0866486287765
 30
0.0
 11
22.2814819138693
 21
-33.1491486287765
 31
0.0
  0
LINE
  5
277
330
1F
100
AcDbEntity
  8
1
  6
Continuous
 62
     3
100
AcDbLine
 10
22.2814819138693
 20
-33.1491486287765
 30
0.0
 11
22.5314819138693
 21
-33.3991486287765
 31
0.0
  0
LINE
  5
278
330
1F
100
AcDbEntity
  8
1
  6
Continuous
 62
     3
100
AcDbLine
 10
22.5314819138693
 20
-33.3991486287765
 30
0.0
 11
22.5939819138693
 21
-33.7741486287765
 31
0.0
  0
LINE
  5
279
330
1F
100
AcDbEntity
  8
1
  6
Continuous
 62
     3
100
AcDbLine
 10
22.5939819138693
 20
-33.7741486287765
 30
0.0
 11
22.5314819138693
 21
-34.0866486287765
 31
0.0
  0
LINE
  5
27A
330
1F
100
AcDbEntity
  8
1
  6
Continuous
 62
     3
100
AcDbLine
 10
22.5314819138693
 20
-34.0866486287765
 30
0.0
 11
22.2814819138693
 21
-34.2741486287765
 31
0.0
  0
LINE
  5
27B
330
1F
100
AcDbEntity
  8
1
  6
Continuous
 62
     3
100
AcDbLine
 10
22.2814819138693
 20
-34.2741486287765
 30
0.0
 11
22.0939819138693
 21
-34.3366486287765
 31
0.0
  0
LINE
  5
27C
330
1F
100
AcDbEntity
  8
1
  6
Continuous
 62
     3
100
AcDbLine
 10
22.0939819138693
 20
-34.3366486287765
 30
0.0
 11
21.7814819138693
 21
-34.3366486287765
 31
0.0
  0
LINE
  5
27D
330
1F
100
AcDbEntity
  8
1
  6
Continuous
 62
     3
100
AcDbLine
 10
21.7814819138693
 20
-34.3366486287765
 30
0.0
 11
21.4689819138693
 21
-34.2741486287765
 31
0.0
  0
LINE
  5
27E
330
1F
100
AcDbEntity
  8
1
  6
Continuous
 62
     3
100
AcDbLine
 10
21.4689819138693
 20
-34.2741486287765
 30
0.0
 11
21.2814819138693
 21
-34.0866486287765
 31
0.0
  0
LINE
  5
27F
330
1F
100
AcDbEntity
  8
1
  6
Continuous
 62
     3
100
AcDbLine
 10
21.2814819138693
 20
-34.0866486287765
 30
0.0
 11
21.0939819138693
 21
-33.7741486287765
 31
0.0
  0
LINE
  5
280
330
1F
100
AcDbEntity
  8
1
  6
Continuous
 62
     3
100
AcDbLine
 10
24.0314819138693
 20
-33.0866486287765
 30
0.0
 11
25.3439819138693
 21
-33.0866486287765
 31
0.0
  0
LINE
  5
281
330
1F
100
AcDbEntity
  8
1
  6
Continuous
 62
     3
100
AcDbLine
 10
27.4064819138693
 20
-32.0866486287765
 30
0.0
 11
27.7814819138693
 21
-31.8366486287765
 31
0.0
  0
LINE
  5
282
330
1F
100
AcDbEntity
  8
1
  6
Continuous
 62
     3
100
AcDbLine
 10
27.7814819138693
 20
-31.8366486287765
 30
0.0
 11
27.7814819138693
 21
-34.3366486287765
 31
0.0
  0
LINE
  5
283
330
1F
100
AcDbEntity
  8
1
  6
Continuous
 62
     3
100
AcDbLine
 10
31.0314819138693
 20
-34.3366486287765
 30
0.0
 11
31.0314819138693
 21
-31.8366486287765
 31
0.0
  0
LINE
  5
284
330
1F
100
AcDbEntity
  8
1
  6
Continuous
 62
     3
100
AcDbLine
 10
31.0314819138693
 20
-31.8366486287765
 30
0.0
 11
29.7189819138693
 21
-33.7741486287765
 31
0.0
  0
LINE
  5
285
330
1F
100
AcDbEntity
  8
1
  6
Continuous
 62
     3
100
AcDbLine
 10
29.7189819138693
 20
-33.7741486287765
 30
0.0
 11
31.4689819138693
 21
-33.7741486287765
 31
0.0
  0
LINE
  5
286
330
1F
100
AcDbEntity
  8
1
  6
Continuous
 62
     3
100
AcDbLine
 10
32.8439819138693
 20
-33.0866486287765
 30
0.0
 11
34.1564819138693
 21
-33.0866486287765
 31
0.0
  0
LINE
  5
287
330
1F
100
AcDbEntity
  8
1
  6
Continuous
 62
     3
100
AcDbLine
 10
35.7814819138693
 20
-32.3366486287765
 30
0.0
 11
36.0939819138693
 21
-32.0241486287765
 31
0.0
  0
LINE
  5
288
330
1F
100
AcDbEntity
  8
1
  6
Continuous
 62
     3
100
AcDbLine
 10
36.0939819138693
 20
-32.0241486287765
 30
0.0
 11
36.5314819138693
 21
-31.8366486287765
 31
0.0
  0
LINE
  5
289
330
1F
100
AcDbEntity
  8
1
  6
Continuous
 62
     3
100
AcDbLine
 10
36.5314819138693
 20
-31.8366486287765
 30
0.0
 11
36.9689819138693
 21
-32.0241486287765
 31
0.0
  0
LINE
  5
28A
330
1F
100
AcDbEntity
  8
1
  6
Continuous
 62
     3
100
AcDbLine
 10
36.9689819138693
 20
-32.0241486287765
 30
0.0
 11
37.2814819138693
 21
-32.3366486287765
 31
0.0
  0
LINE
  5
28B
330
1F
100
AcDbEntity
  8
1
  6
Continuous
 62
     3
100
AcDbLine
 10
37.2814819138693
 20
-32.3366486287765
 30
0.0
 11
37.2189819138693
 21
-32.6491486287765
 31
0.0
  0
LINE
  5
28C
330
1F
100
AcDbEntity
  8
1
  6
Continuous
 62
     3
100
AcDbLine
 10
37.2189819138693
 20
-32.6491486287765
 30
0.0
 11
36.9689819138693
 21
-33.0241486287765
 31
0.0
  0
LINE
  5
28D
330
1F
100
AcDbEntity
  8
1
  6
Continuous
 62
     3
100
AcDbLine
 10
36.9689819138693
 20
-33.0241486287765
 30
0.0
 11
36.5939819138693
 21
-33.2741486287765
 31
0.0
  0
LINE
  5
28E
330
1F
100
AcDbEntity
  8
1
  6
Continuous
 62
     3
100
AcDbLine
 10
36.5939819138693
 20
-33.2741486287765
 30
0.0
 11
36.2814819138693
 21
-33.3991486287765
 31
0.0
  0
LINE
  5
28F
330
1F
100
AcDbEntity
  8
1
  6
Continuous
 62
     3
100
AcDbLine
 10
36.2814819138693
 20
-33.3991486287765
 30
0.0
 11
36.0314819138693
 21
-33.6491486287765
 31
0.0
  0
LINE
  5
290
330
1F
100
AcDbEntity
  8
1
  6
Continuous
 62
     3
100
AcDbLine
 10
36.0314819138693
 20
-33.6491486287765
 30
0.0
 11
35.8439819138693
 21
-33.8991486287765
 31
0.0
  0
LINE
  5
291
330
1F
100
AcDbEntity
  8
1
  6
Continuous
 62
     3
100
AcDbLine
 10
35.8439819138693
 20
-33.8991486287765
 30
0.0
 11
35.7189819138693
 21
-34.3366486287765
 31
0.0
  0
LINE
  5
292
330
1F
100
AcDbEntity
  8
1
  6
Continuous
 62
     3
100
AcDbLine
 10
35.7189819138693
 20
-34.3366486287765
 30
0.0
 11
37.3439819138693
 21
-34.3366486287765
 31
0.0
  0
LINE
  5
293
330
1F
100
AcDbEntity
  8
1
  6
Continuous
 62
     3
100
AcDbLine
 10
39.4064819138693
 20
-31.8366486287765
 30
0.0
 11
38.9689819138693
 21
-32.0241486287765
 31
0.0
  0
LINE
  5
294
330
1F
100
AcDbEntity
  8
1
  6
Continuous
 62
     3
100
AcDbLine
 10
38.9689819138693
 20
-32.0241486287765
 30
0.0
 11
38.7189819138693
 21
-32.3991486287765
 31
0.0
  0
LINE
  5
295
330
1F
100
AcDbEntity
  8
1
  6
Continuous
 62
     3
100
AcDbLine
 10
38.7189819138693
 20
-32.3991486287765
 30
0.0
 11
38.5939819138693
 21
-33.0866486287765
 31
0.0
  0
LINE
  5
296
330
1F
100
AcDbEntity
  8
1
  6
Continuous
 62
     3
100
AcDbLine
 10
38.5939819138693
 20
-33.0866486287765
 30
0.0
 11
38.7189819138693
 21
-33.7741486287765
 31
0.0
  0
LINE
  5
297
330
1F
100
AcDbEntity
  8
1
  6
Continuous
 62
     3
100
AcDbLine
 10
38.7189819138693
 20
-33.7741486287765
 30
0.0
 11
38.9689819138693
 21
-34.1491486287765
 31
0.0
  0
LINE
  5
298
330
1F
100
AcDbEntity
  8
1
  6
Continuous
 62
     3
100
AcDbLine
 10
38.9689819138693
 20
-34.1491486287765
 30
0.0
 11
39.4064819138693
 21
-34.3366486287765
 31
0.0
  0
LINE
  5
299
330
1F
100
AcDbEntity
  8
1
  6
Continuous
 62
     3
100
AcDbLine
 10
39.4064819138693
 20
-34.3366486287765
 30
0.0
 11
39.8439819138693
 21
-34.1491486287765
 31
0.0
  0
LINE
  5
29A
330
1F
100
AcDbEntity
  8
1
  6
Continuous
 62
     3
100
AcDbLine
 10
39.8439819138693
 20
-34.1491486287765
 30
0.0
 11
40.1564819138693
 21
-33.7741486287765
 31
0.0
  0
LINE
  5
29B
330
1F
100
AcDbEntity
  8
1
  6
Continuous
 62
     3
100
AcDbLine
 10
40.1564819138693
 20
-33.7741486287765
 30
0.0
 11
40.2189819138693
 21
-33.0866486287765
 31
0.0
  0
LINE
  5
29C
330
1F
100
AcDbEntity
  8
1
  6
Continuous
 62
     3
100
AcDbLine
 10
40.2189819138693
 20
-33.0866486287765
 30
0.0
 11
40.1564819138693
 21
-32.3991486287765
 31
0.0
  0
LINE
  5
29D
330
1F
100
AcDbEntity
  8
1
  6
Continuous
 62
     3
100
AcDbLine
 10
40.1564819138693
 20
-32.3991486287765
 30
0.0
 11
39.8439819138693
 21
-32.0241486287765
 31
0.0
  0
LINE
  5
29E
330
1F
100
AcDbEntity
  8
1
  6
Continuous
 62
     3
100
AcDbLine
 10
39.8439819138693
 20
-32.0241486287765
 30
0.0
 11
39.4064819138693
 21
-31.8366486287765
 31
0.0
  0
ARC
  5
29F
330
1F
100
AcDbEntity
  8
1
  6
Continuous
 62
     3
100
AcDbCircle
 10
-115.202470544989
 20
-15.7209831675748
 30
0.0
 40
4.000000000000387
100
AcDbArc
 50
145.2669122836179
 51
214.7330877163832
  0
ARC
  5
2A0
330
1F
100
AcDbEntity
  8
1
  6
Continuous
 62
     3
100
AcDbCircle
 10
-106.131100322562
 20
-6.5056183502065
 30
0.0
 40
13.51333136464126
100
AcDbArc
 50
156.1420445543233
 51
203.8579554456768
  0
ARC
  5
2A1
330
1F
100
AcDbEntity
  8
1
  6
Continuous
 62
     3
100
AcDbCircle
 10
-106.131100322562
 20
6.50561835020655
 30
0.0
 40
13.51333136464129
100
AcDbArc
 50
156.142044554323
 51
203.8579554456768
  0
ARC
  5
2A2
330
1F
100
AcDbEntity
  8
1
  6
Continuous
 62
     3
100
AcDbCircle
 10
-115.202470544989
 20
15.7209831675747
 30
0.0
 40
4.000000000000444
100
AcDbArc
 50
145.2669122836167
 51
214.7330877163821
  0
ARC
  5
2A3
330
1F
100
AcDbEntity
  8
1
  6
Continuous
 62
     3
100
AcDbCircle
 10
-34.2580388577862
 20
-15.7209831675748
 30
0.0
 40
3.999999999999973
100
AcDbArc
 50
145.2669122836138
 51
214.7330877163862
  0
ARC
  5
2A4
330
1F
100
AcDbEntity
  8
1
  6
Continuous
 62
     3
100
AcDbCircle
 10
-25.1866686353588
 20
6.50561835020656
 30
0.0
 40
13.51333136464119
100
AcDbArc
 50
156.1420445543229
 51
203.8579554456768
  0
ARC
  5
2A5
330
1F
100
AcDbEntity
  8
1
  6
Continuous
 62
     3
100
AcDbCircle
 10
-33.0948969767299
 20
15.7209831675748
 30
0.0
 40
4.999999999999961
100
AcDbArc
 50
152.8833638376649
 51
207.1166361623361
  0
ARC
  5
2A6
330
1F
100
AcDbEntity
  8
1
  6
Continuous
 62
     3
100
AcDbCircle
 10
14.1340096342544
 20
-6.50561835020655
 30
0.0
 40
26.16599036574552
100
AcDbArc
 50
347.9428424868768
 51
12.05715751312313
  0
ARC
  5
2A7
330
1F
100
AcDbEntity
  8
1
  6
Continuous
 62
     3
100
AcDbCircle
 10
14.134009634255
 20
6.50561835020657
 30
0.0
 40
26.16599036574492
100
AcDbArc
 50
347.9428424868767
 51
12.0571575131234
  0
ARC
  5
2A8
330
1F
100
AcDbEntity
  8
1
  6
Continuous
 62
     3
100
AcDbCircle
 10
35.512379390454
 20
15.7209831675748
 30
0.0
 40
4.787620609545918
100
AcDbArc
 50
331.5740310569497
 51
28.42596894305034
  0
ARC
  5
2A9
330
1F
100
AcDbEntity
  8
1
  6
Continuous
 62
     3
100
AcDbCircle
 10
-11.9620124053118
 20
-6.50561835020648
 30
0.0
 40
26.16063732549852
100
AcDbArc
 50
167.9403382410393
 51
192.0596617589608
  0
ARC
  5
2AA
330
1F
100
AcDbEntity
  8
1
  6
Continuous
 62
     3
100
AcDbCircle
 10
35.5123793904544
 20
-15.7209831675748
 30
0.0
 40
4.787620609545567
100
AcDbArc
 50
331.5740310569474
 51
28.42596894305263
  0
ARC
  5
2AB
330
1F
100
AcDbEntity
  8
0
  6
Continuous
 62
     3
100
AcDbCircle
 10
-80.9444316872033
 20
0.0
 30
0.0
 40
17.99999999999996
100
AcDbArc
 50
356.6881364537206
 51
0.0
  0
ARC
  5
2AC
330
1F
100
AcDbEntity
  8
0
  6
Continuous
 62
     3
100
AcDbCircle
 10
-80.9444316872033
 20
0.0
 30
0.0
 40
17.99999999999995
100
AcDbArc
 50
176.6881364537206
 51
183.3118635462794
  0
ARC
  5
2AD
330
1F
100
AcDbEntity
  8
0
  6
Continuous
 62
     3
100
AcDbCircle
 10
-80.9444316872033
 20
0.0
 30
0.0
 40
17.99999999999991
100
AcDbArc
 50
0.0
 51
3.31186354627922
  0
ARC
  5
2AE
330
1F
100
AcDbEntity
  8
0
  6
Continuous
 62
     3
100
AcDbCircle
 10
-80.9444316872033
 20
0.0
 30
0.0
 40
17.99999999999996
100
AcDbArc
 50
86.6881364537205
 51
93.31186354627945
  0
ARC
  5
2AF
330
1F
100
AcDbEntity
  8
0
  6
Continuous
 62
     3
100
AcDbCircle
 10
-80.9444316872033
 20
0.0
 30
0.0
 40
17.99999999999994
100
AcDbArc
 50
131.6881364537207
 51
138.3118635462795
  0
ARC
  5
2B0
330
1F
100
AcDbEntity
  8
0
  6
Continuous
 62
     3
100
AcDbCircle
 10
-80.9444316872033
 20
0.0
 30
0.0
 40
17.99999999999996
100
AcDbArc
 50
266.6881364537205
 51
273.3118635462791
  0
ARC
  5
2B1
330
1F
100
AcDbEntity
  8
0
  6
Continuous
 62
     3
100
AcDbCircle
 10
-80.9444316872033
 20
0.0
 30
0.0
 40
18.0000000000001
100
AcDbArc
 50
221.6881364537208
 51
228.3118635462793
  0
ARC
  5
2B2
330
1F
100
AcDbEntity
  8
0
  6
Continuous
 62
     3
100
AcDbCircle
 10
-80.9444316872033
 20
0.0
 30
0.0
 40
17.99999999999995
100
AcDbArc
 50
311.6881364537207
 51
318.3118635462793
  0
ARC
  5
2B3
330
1F
100
AcDbEntity
  8
0
  6
Continuous
 62
     3
100
AcDbCircle
 10
-80.9444316872033
 20
0.0
 30
0.0
 40
17.99999999999995
100
AcDbArc
 50
41.68813645372074
 51
48.31186354627926
  0
ARC
  5
2B4
330
1F
100
AcDbEntity
  8
1
  6
Continuous
 62
     3
100
AcDbCircle
 10
14.1340096342556
 20
94.0056183502064
 30
0.0
 40
26.16599036574431
100
AcDbArc
 50
2.74491741815285
 51
12.05715751312382
  0
ARC
  5
2B5
330
1F
100
AcDbEntity
  8
1
  6
Continuous
 62
     3
100
AcDbCircle
 10
14.134009634254
 20
80.9943816497934
 30
0.0
 40
26.16599036574592
100
AcDbArc
 50
347.9428424868769
 51
357.2550825818475
  0
ARC
  5
2B6
330
1F
100
AcDbEntity
  8
1
  6
Continuous
 62
     3
100
AcDbCircle
 10
35.5123793904544
 20
71.7790168324251
 30
0.0
 40
4.787620609545567
100
AcDbArc
 50
331.5740310569474
 51
28.42596894305261
  0
ARC
  5
2B7
330
1F
100
AcDbEntity
  8
1
  6
Continuous
 62
     3
100
AcDbCircle
 10
35.5123793904544
 20
103.220983167575
 30
0.0
 40
4.787620609545472
100
AcDbArc
 50
331.5740310569495
 51
28.42596894305052
  0
ARC
  5
2B8
330
1F
100
AcDbEntity
  8
1
  6
Continuous
 62
     3
100
AcDbCircle
 10
-80.9444316872033
 20
0.0
 30
0.0
 40
22.68441064638775
100
AcDbArc
 50
234.1182109661557
 51
0.00000000000003
  0
ARC
  5
2B9
330
1F
100
AcDbEntity
  8
0
  6
Continuous
 62
     3
100
AcDbCircle
 10
7.69774100772074
 20
65.3253249293012
 30
0.0
 40
2.0
100
AcDbArc
 50
270.0
 51
310.4766298222692
  0
ARC
  5
2BA
330
1F
100
AcDbEntity
  8
0
  6
Continuous
 62
     3
100
AcDbCircle
 10
4.49440015993054
 20
105.5
 30
0.0
 40
1.999999999999953
100
AcDbArc
 50
14.99999999999904
 51
90.0
  0
ARC
  5
2BB
330
1F
100
AcDbEntity
  8
0
  6
Continuous
 62
     3
100
AcDbCircle
 10
-4.49440015993056
 20
105.5
 30
0.0
 40
2.0
100
AcDbArc
 50
90.0
 51
165.0000000000013
  0
ARC
  5
2BC
330
1F
100
AcDbEntity
  8
0
  6
Continuous
 62
     3
100
AcDbCircle
 10
4.49440015993054
 20
69.5
 30
0.0
 40
2.0
100
AcDbArc
 50
270.0
 51
345.0000000000009
  0
ARC
  5
2BD
330
1F
100
AcDbEntity
  8
0
  6
Continuous
 62
     3
100
AcDbCircle
 10
-7.69774100772062
 20
65.3253249293012
 30
0.0
 40
2.000000000000098
100
AcDbArc
 50
194.9999999999979
 51
270.0
  0
ARC
  5
2BE
330
1F
100
AcDbEntity
  8
0
  6
Continuous
 62
     3
100
AcDbCircle
 10
-4.49440015993056
 20
69.5
 30
0.0
 40
1.999999999999992
100
AcDbArc
 50
194.9999999999987
 51
270.0
  0
ARC
  5
2BF
330
1F
100
AcDbEntity
  8
0
  6
Continuous
 62
     3
100
AcDbCircle
 10
7.69774100772074
 20
65.3253249293012
 30
0.0
 40
2.0
100
AcDbArc
 50
270.0
 51
310.4766298222692
  0
ARC
  5
2C0
330
1F
100
AcDbEntity
  8
0
  6
Continuous
 62
     3
100
AcDbCircle
 10
0.0
 20
87.4999999999999
 30
0.0
 40
11.00000000000009
100
AcDbArc
 50
164.9999999999992
 51
194.9999999999994
  0
ARC
  5
2C1
330
1F
100
AcDbEntity
  8
1
  6
Continuous
 62
     3
100
AcDbCircle
 10
-33.3359099033836
 20
103.220983167575
 30
0.0
 40
4.786739827426596
100
AcDbArc
 50
151.5683243167936
 51
208.4316756832064
  0
ARC
  5
2C2
330
1F
100
AcDbEntity
  8
1
  6
Continuous
 62
     3
100
AcDbCircle
 10
-11.9620124053118
 20
94.0056183502065
 30
0.0
 40
26.16063732549854
100
AcDbArc
 50
167.940338241039
 51
192.0596617589608
  0
ARC
  5
2C3
330
1F
100
AcDbEntity
  8
1
  6
Continuous
 62
     3
100
AcDbCircle
 10
-11.9620124053118
 20
80.9943816497935
 30
0.0
 40
26.16063732549852
100
AcDbArc
 50
167.9403382410392
 51
192.0596617589608
  0
ARC
  5
2C4
330
1F
100
AcDbEntity
  8
1
  6
Continuous
 62
     3
100
AcDbCircle
 10
-33.3359099033836
 20
71.7790168324252
 30
0.0
 40
4.786739827426691
100
AcDbArc
 50
151.5683243167915
 51
208.4316756832085
  0
ARC
  5
2C5
330
1F
100
AcDbEntity
  8
1
  6
Continuous
 62
     3
100
AcDbCircle
 10
15.7209831675748
 20
120.835909903384
 30
0.0
 40
4.786739827426644
100
AcDbArc
 50
61.56832431678989
 51
118.4316756832091
  0
ARC
  5
2C6
330
1F
100
AcDbEntity
  8
1
  6
Continuous
 62
     3
100
AcDbCircle
 10
6.50561835020656
 20
99.4620124053117
 30
0.0
 40
26.16063732549893
100
AcDbArc
 50
77.94033824103931
 51
102.0596617589606
  0
ARC
  5
2C7
330
1F
100
AcDbEntity
  8
1
  6
Continuous
 62
     3
100
AcDbCircle
 10
-6.50561835020648
 20
99.4620124053117
 30
0.0
 40
26.16063732549891
100
AcDbArc
 50
77.94033824103941
 51
102.0596617589607
  0
ARC
  5
2C8
330
1F
100
AcDbEntity
  8
1
  6
Continuous
 62
     3
100
AcDbCircle
 10
-15.7209831675747
 20
120.835909903384
 30
0.0
 40
4.786739827426597
100
AcDbArc
 50
61.56832431679093
 51
118.4316756832101
  0
ARC
  5
2C9
330
1F
100
AcDbEntity
  8
1
  6
Continuous
 62
     3
100
AcDbCircle
 10
-5.62638837486631
 20
39.0712115155286
 30
0.0
 40
3.328788484471366
100
AcDbArc
 50
55.74681268968352
 51
124.2531873103165
  0
ARC
  5
2CA
330
1F
100
AcDbEntity
  8
1
  6
Continuous
 62
     3
100
AcDbCircle
 10
5.62638837486628
 20
39.0712115155286
 30
0.0
 40
3.328788484471383
100
AcDbArc
 50
55.7468126896831
 51
124.2531873103165
  0
ARC
  5
2CB
330
1F
100
AcDbEntity
  8
1
  6
Continuous
 62
     3
100
AcDbCircle
 10
-5.62638837486631
 20
40.7287884844712
 30
0.0
 40
3.328788484471207
100
AcDbArc
 50
235.7468126896816
 51
304.2531873103184
  0
ARC
  5
2CC
330
1F
100
AcDbEntity
  8
1
  6
Continuous
 62
     3
100
AcDbCircle
 10
0.0
 20
49.8851995712262
 30
0.0
 40
12.48519957122622
100
AcDbArc
 50
252.5076754748901
 51
287.4923245251097
  0
ARC
  5
2CD
330
1F
100
AcDbEntity
  8
1
  6
Continuous
 62
     3
100
AcDbCircle
 10
0.0
 20
29.9148004287734
 30
0.0
 40
12.48519957122659
100
AcDbArc
 50
72.50767547489082
 51
107.4923245251093
  0
ARC
  5
2CE
330
1F
100
AcDbEntity
  8
1
  6
Continuous
 62
     3
100
AcDbCircle
 10
5.62638837486628
 20
40.7287884844712
 30
0.0
 40
3.328788484471207
100
AcDbArc
 50
235.7468126896816
 51
304.2531873103188
  0
ARC
  5
2CF
330
1F
100
AcDbEntity
  8
1
  6
Continuous
 62
     3
100
AcDbCircle
 10
77.4318784569953
 20
50.95
 30
0.0
 40
2.574517795071143
100
AcDbArc
 50
277.913628306043
 51
82.08637169395695
  0
ARC
  5
2D0
330
1F
100
AcDbEntity
  8
1
  6
Continuous
 62
     3
100
AcDbCircle
 10
18.9762713652777
 20
37.7929419379713
 30
0.0
 40
1.404249567961668
100
AcDbArc
 50
235.3800591569302
 51
339.0175559764816
  0
ARC
  5
2D1
330
1F
100
AcDbEntity
  8
1
  6
Continuous
 62
     3
100
AcDbCircle
 10
-19.7189286964181
 20
46.8101972850959
 30
0.0
 40
39.73196951838544
100
AcDbArc
 50
346.8823026197139
 51
358.5319800897315
  0
ARC
  5
2D2
330
1F
100
AcDbEntity
  8
1
  6
Continuous
 62
     3
100
AcDbCircle
 10
-75.1929704532326
 20
34.9152659609094
 30
0.0
 40
15.96248942800628
100
AcDbArc
 50
164.617918747031
 51
170.6731029949142
  0
ARC
  5
2D3
330
1F
100
AcDbEntity
  8
1
  6
Continuous
 62
     3
100
AcDbCircle
 10
-89.2504091060102
 20
37.2840627833275
 30
0.0
 40
1.708017123791107
100
AcDbArc
 50
172.6604767375135
 51
211.539157255252
  0
ARC
  5
2D4
330
1F
100
AcDbEntity
  8
1
  6
Continuous
 62
     3
100
AcDbCircle
 10
-113.662008994632
 20
44.9180357214742
 30
0.0
 40
23.78839126151959
100
AcDbArc
 50
345.965956695484
 51
359.1446682256191
  0
ARC
  5
2D5
330
1F
100
AcDbEntity
  8
1
  6
Continuous
 62
     3
100
AcDbCircle
 10
-86.6958929211741
 20
34.9152659609094
 30
0.0
 40
15.96248942800639
100
AcDbArc
 50
9.3268970050857
 51
15.38208125296892
  0
ARC
  5
2D6
330
1F
100
AcDbEntity
  8
1
  6
Continuous
 62
     3
100
AcDbCircle
 10
-48.2268543797746
 20
44.9180357214742
 30
0.0
 40
23.78839126151961
100
AcDbArc
 50
180.8553317743809
 51
194.0340433045161
  0
ARC
  5
2D7
330
1F
100
AcDbEntity
  8
1
  6
Continuous
 62
     3
100
AcDbCircle
 10
-72.6384542683965
 20
37.2840627833275
 30
0.0
 40
1.708017123791148
100
AcDbArc
 50
328.4608427447497
 51
7.33952326248614
  0
ARC
  5
2D8
330
1F
100
AcDbEntity
  8
1
  6
Continuous
 62
     3
100
AcDbCircle
 10
0.0
 20
87.4999999999999
 30
0.0
 40
3.199999999999902
100
AcDbArc
 50
275.3793789911122
 51
84.6206210088881
  0
ARC
  5
2D9
330
1F
100
AcDbEntity
  8
1
  6
Continuous
 62
     3
100
AcDbCircle
 10
0.0
 20
87.4999999999999
 30
0.0
 40
3.2000000000001
100
AcDbArc
 50
95.37937899111192
 51
174.6206210088862
  0
ARC
  5
2DA
330
1F
100
AcDbEntity
  8
1
  6
Continuous
 62
     3
100
AcDbCircle
 10
0.0
 20
87.4999999999999
 30
0.0
 40
3.199999999999992
100
AcDbArc
 50
185.3793789911102
 51
264.6206210088879
  0
ARC
  5
2DB
330
1F
100
AcDbEntity
  8
1
  6
Continuous
 62
     3
100
AcDbCircle
 10
0.0
 20
87.4999999999999
 30
0.0
 40
3.200000000000001
100
AcDbArc
 50
264.6206210088879
 51
275.3793789911122
  0
ARC
  5
2DC
330
1F
100
AcDbEntity
  8
1
  6
Continuous
 62
     3
100
AcDbCircle
 10
0.0
 20
87.4999999999999
 30
0.0
 40
5.63499999999999
100
AcDbArc
 50
0.00000000000101
 51
46.09552020999104
  0
ARC
  5
2DD
330
1F
100
AcDbEntity
  8
1
  6
Continuous
 62
     3
100
AcDbCircle
 10
0.0
 20
87.4999999999999
 30
0.0
 40
5.634999999999986
100
AcDbArc
 50
133.904479790009
 51
226.0955202099904
  0
ARC
  5
2DE
330
1F
100
AcDbEntity
  8
1
  6
Continuous
 62
     3
100
AcDbCircle
 10
0.0
 20
87.4999999999999
 30
0.0
 40
7.5
100
AcDbArc
 50
0.0
 51
59.97550253781471
  0
ARC
  5
2DF
330
1F
100
AcDbEntity
  8
1
  6
Continuous
 62
     3
100
AcDbCircle
 10
0.0
 20
87.4999999999999
 30
0.0
 40
7.50000000000001
100
AcDbArc
 50
180.0
 51
0.0
  0
ARC
  5
2E0
330
1F
100
AcDbEntity
  8
1
  6
Continuous
 62
     3
100
AcDbCircle
 10
0.0
 20
87.4999999999999
 30
0.0
 40
7.500000000000001
100
AcDbArc
 50
120.0244974621854
 51
180.0
  0
ARC
  5
2E1
330
1F
100
AcDbEntity
  8
1
  6
Continuous
 62
     3
100
AcDbCircle
 10
0.0
 20
87.4999999999999
 30
0.0
 40
10.0000000000001
100
AcDbArc
 50
90.0
 51
179.9999999999994
  0
ARC
  5
2E2
330
1F
100
AcDbEntity
  8
1
  6
Continuous
 62
     3
100
AcDbCircle
 10
20.0
 20
94.9718300752093
 30
0.0
 40
1.000619764713605
100
AcDbArc
 50
90.0
 51
173.0495214441046
  0
ARC
  5
2E3
330
1F
100
AcDbEntity
  8
1
  6
Continuous
 62
     3
100
AcDbCircle
 10
20.0
 20
80.0281699247906
 30
0.0
 40
1.000619764713532
100
AcDbArc
 50
186.9504785558898
 51
270.0
  0
ARC
  5
2E4
330
1F
100
AcDbEntity
  8
1
  6
Continuous
 62
     3
100
AcDbCircle
 10
19.1708206856556
 20
94.1713342634385
 30
0.0
 40
0.8291793143444011
100
AcDbArc
 50
0.0
 51
87.98331098162446
  0
ARC
  5
2E5
330
1F
100
AcDbEntity
  8
1
  6
Continuous
 62
     3
100
AcDbCircle
 10
19.1708206856556
 20
80.8286657365615
 30
0.0
 40
0.8291793143443882
100
AcDbArc
 50
272.0166890183756
 51
0.0
  0
ARC
  5
2E6
330
1F
100
AcDbEntity
  8
1
  6
Continuous
 62
     3
100
AcDbCircle
 10
0.0
 20
87.4999999999999
 30
0.0
 40
5.634999999999914
100
AcDbArc
 50
313.9044797900096
 51
0.00000000000101
  0
ARC
  5
2E7
330
1F
100
AcDbEntity
  8
1
  6
Continuous
 62
     3
100
AcDbCircle
 10
0.0
 20
87.4999999999999
 30
0.0
 40
7.499999999999996
100
AcDbArc
 50
59.97550253781471
 51
120.0244974621854
  0
ARC
  5
2E8
330
1F
100
AcDbEntity
  8
1
  6
Continuous
 62
     3
100
AcDbCircle
 10
78.5
 20
87.5
 30
0.0
 40
1.500000000000068
100
AcDbArc
 50
308.2980118668278
 51
0.0
  0
ARC
  5
2E9
330
1F
100
AcDbEntity
  8
1
  6
Continuous
 62
     3
100
AcDbCircle
 10
78.5
 20
87.5
 30
0.0
 40
1.5
100
AcDbArc
 50
0.0
 51
51.70198813316987
  0
ARC
  5
2EA
330
1F
100
AcDbEntity
  8
1
  6
Continuous
 62
     3
100
AcDbCircle
 10
-77.6944316872033
 20
32.9639315379327
 30
0.0
 40
9.43606846206736
100
AcDbArc
 50
69.85341605443367
 51
110.1465839455663
  0
ARC
  5
2EB
330
1F
100
AcDbEntity
  8
1
  6
Continuous
 62
     3
100
AcDbCircle
 10
-77.6944316872033
 20
46.8360684620681
 30
0.0
 40
9.436068462068114
100
AcDbArc
 50
249.8534160544353
 51
290.1465839455647
  0
ARC
  5
2EC
330
1F
100
AcDbEntity
  8
1
  6
Continuous
 62
     3
100
AcDbCircle
 10
-84.1944316872033
 20
32.9639315379329
 30
0.0
 40
9.436068462067173
100
AcDbArc
 50
69.85341605443325
 51
110.1465839455668
  0
ARC
  5
2ED
330
1F
100
AcDbEntity
  8
1
  6
Continuous
 62
     3
100
AcDbCircle
 10
-84.1944316872033
 20
46.835624182111
 30
0.0
 40
9.435651366829095
100
AcDbArc
 50
249.852486874666
 51
290.147513125334
  0
ARC
  5
2EE
330
1F
100
AcDbEntity
  8
1
  6
Continuous
 62
     3
100
AcDbCircle
 10
-80.9444316872033
 20
0.0
 30
0.0
 40
23.99999999999996
100
AcDbArc
 50
228.5903778907293
 51
270.0
  0
ARC
  5
2EF
330
1F
100
AcDbEntity
  8
1
  6
Continuous
 62
     3
100
AcDbCircle
 10
-80.9444316872033
 20
0.0
 30
0.0
 40
24.0
100
AcDbArc
 50
270.0
 51
0.00000000000008
  0
ARC
  5
2F0
330
1F
100
AcDbEntity
  8
1
  6
Continuous
 62
     3
100
AcDbCircle
 10
-80.9444316872033
 20
0.0
 30
0.0
 40
21.44545538228833
100
AcDbArc
 50
215.7448450285464
 51
0.00000000000005
  0
ARC
  5
2F1
330
1F
100
AcDbEntity
  8
1
  6
Continuous
 62
     3
100
AcDbCircle
 10
-80.9444316872033
 20
0.0
 30
0.0
 40
17.99999999999991
100
AcDbArc
 50
0.0
 51
194.7640716873322
  0
ARC
  5
2F2
330
1F
100
AcDbEntity
  8
1
  6
Continuous
 62
     3
100
AcDbCircle
 10
-80.9444316872033
 20
0.0
 30
0.0
 40
18.00000000000006
100
AcDbArc
 50
194.7640716873322
 51
0.0
  0
ARC
  5
2F3
330
1F
100
AcDbEntity
  8
1
  6
Continuous
 62
     3
100
AcDbCircle
 10
-57.3349038096854
 20
0.50000000000002
 30
0.0
 40
0.5
100
AcDbArc
 50
270.0
 51
7.00000000000013
  0
ARC
  5
2F4
330
1F
100
AcDbEntity
  8
1
  6
Continuous
 62
     3
100
AcDbCircle
 10
-95.412331637075
 20
-20.0
 30
0.0
 40
1.999999999999933
100
AcDbArc
 50
54.11821096615701
 51
90.0
  0
ARC
  5
2F5
330
1F
100
AcDbEntity
  8
1
  6
Continuous
 62
     3
100
AcDbCircle
 10
29.3
 20
-19.0
 30
0.0
 40
1.0
100
AcDbArc
 50
90.0
 51
180.0
  0
ARC
  5
2F6
330
1F
100
AcDbEntity
  8
1
  6
Continuous
 62
     3
100
AcDbCircle
 10
29.3
 20
19.0
 30
0.0
 40
1.0
100
AcDbArc
 50
180.0
 51
270.0
  0
ARC
  5
2F7
330
1F
100
AcDbEntity
  8
1
  6
Continuous
 62
     3
100
AcDbCircle
 10
27.3
 20
23.0000000000001
 30
0.0
 40
1.0
100
AcDbArc
 50
0.0
 51
90.0
  0
ARC
  5
2F8
330
1F
100
AcDbEntity
  8
1
  6
Continuous
 62
     3
100
AcDbCircle
 10
27.3
 20
-23.0
 30
0.0
 40
1.0
100
AcDbArc
 50
270.0
 51
0.0
  0
ARC
  5
2F9
330
1F
100
AcDbEntity
  8
1
  6
Continuous
 62
     3
100
AcDbCircle
 10
29.3
 20
68.4999999999999
 30
0.0
 40
1.0
100
AcDbArc
 50
90.0
 51
180.0
  0
ARC
  5
2FA
330
1F
100
AcDbEntity
  8
1
  6
Continuous
 62
     3
100
AcDbCircle
 10
29.3
 20
106.5
 30
0.0
 40
1.0
100
AcDbArc
 50
180.0
 51
270.0
  0
ARC
  5
2FB
330
1F
100
AcDbEntity
  8
1
  6
Continuous
 62
     3
100
AcDbCircle
 10
27.3
 20
110.5
 30
0.0
 40
1.0
100
AcDbArc
 50
0.0
 51
90.0
  0
ARC
  5
2FC
330
1F
100
AcDbEntity
  8
1
  6
Continuous
 62
     3
100
AcDbCircle
 10
27.3
 20
64.4999999999999
 30
0.0
 40
1.0
100
AcDbArc
 50
270.0
 51
0.0
  0
ARC
  5
2FD
330
1F
100
AcDbEntity
  8
1
  6
Continuous
 62
     3
100
AcDbCircle
 10
-104.678435190762
 20
20.0
 30
0.0
 40
2.0
100
AcDbArc
 50
270.0
 51
353.0000000000011
  0
ARC
  5
2FE
330
1F
100
AcDbEntity
  8
1
  6
Continuous
 62
     3
100
AcDbCircle
 10
13.998832157755
 20
26.0
 30
0.0
 40
1.999999999999945
100
AcDbArc
 50
186.9999999999975
 51
270.0
  0
ARC
  5
2FF
330
1F
100
AcDbEntity
  8
1
  6
Continuous
 62
     3
100
AcDbCircle
 10
7.655248291504
 20
-24.4765686350635
 30
0.0
 40
1.500000000000041
100
AcDbArc
 50
45.00000000000274
 51
87.82250220732686
  0
ARC
  5
300
330
1F
100
AcDbEntity
  8
1
  6
Continuous
 62
     3
100
AcDbCircle
 10
9.92132034355967
 20
-22.4999999999999
 30
0.0
 40
1.499999999999968
100
AcDbArc
 50
225.0
 51
270.0
  0
ARC
  5
301
330
1F
100
AcDbEntity
  8
1
  6
Continuous
 62
     3
100
AcDbCircle
 10
-17.1403310553386
 20
-20.0312418199152
 30
0.0
 40
2.000000000000008
100
AcDbArc
 50
225.0000000000001
 51
267.8225022073275
  0
ARC
  5
302
330
1F
100
AcDbEntity
  8
1
  6
Continuous
 62
     3
100
AcDbCircle
 10
-22.8284271247462
 20
-20.0
 30
0.0
 40
2.000000000000006
100
AcDbArc
 50
45.0
 51
90.0
  0
ARC
  5
303
330
1F
100
AcDbEntity
  8
1
  6
Continuous
 62
     3
100
AcDbCircle
 10
-17.1403310553386
 20
20.0312418199152
 30
0.0
 40
1.99999999999993
100
AcDbArc
 50
92.17749779267545
 51
134.9999999999999
  0
ARC
  5
304
330
1F
100
AcDbEntity
  8
1
  6
Continuous
 62
     3
100
AcDbCircle
 10
-22.8284271247462
 20
20.0
 30
0.0
 40
2.000000000000099
100
AcDbArc
 50
270.0
 51
314.999999999998
  0
ARC
  5
305
330
1F
100
AcDbEntity
  8
1
  6
Continuous
 62
     3
100
AcDbCircle
 10
-14.2266073140717
 20
24.1449202192706
 30
0.0
 40
1.999999999999923
100
AcDbArc
 50
272.1774977926726
 51
353.0000000000028
  0
ARC
  5
306
330
1F
100
AcDbEntity
  8
1
  6
Continuous
 62
     3
100
AcDbCircle
 10
20.0
 20
113.5
 30
0.0
 40
2.0
100
AcDbArc
 50
180.0
 51
270.0
  0
ARC
  5
307
330
1F
100
AcDbEntity
  8
1
  6
Continuous
 62
     3
100
AcDbCircle
 10
-20.0
 20
110.328427124746
 30
0.0
 40
1.999999999999931
100
AcDbArc
 50
315.0000000000021
 51
0.0
  0
ARC
  5
308
330
1F
100
AcDbEntity
  8
1
  6
Continuous
 62
     3
100
AcDbCircle
 10
-22.8284271247462
 20
67.5000000000001
 30
0.0
 40
1.999999999999941
100
AcDbArc
 50
44.99999999999813
 51
90.0
  0
ARC
  5
309
330
1F
100
AcDbEntity
  8
1
  6
Continuous
 62
     3
100
AcDbCircle
 10
-17.1403310553386
 20
67.4687581800848
 30
0.0
 40
2.000000000000011
100
AcDbArc
 50
225.0000000000001
 51
267.8225022073245
  0
ARC
  5
30A
330
1F
100
AcDbEntity
  8
1
  6
Continuous
 62
     3
100
AcDbCircle
 10
-22.8284271247462
 20
107.5
 30
0.0
 40
2.0
100
AcDbArc
 50
270.0
 51
315.0000000000019
  0
ARC
  5
30B
330
1F
100
AcDbEntity
  8
1
  6
Continuous
 62
     3
100
AcDbCircle
 10
13.4226497308104
 20
36.4
 30
0.0
 40
1.0
100
AcDbArc
 50
270.0
 51
329.9999999999989
  0
ARC
  5
30C
330
1F
100
AcDbEntity
  8
1
  6
Continuous
 62
     3
100
AcDbCircle
 10
14.5773502691896
 20
34.4
 30
0.0
 40
2.0
100
AcDbArc
 50
270.0
 51
330.0000000000003
  0
ARC
  5
30D
330
1F
100
AcDbEntity
  8
1
  6
Continuous
 62
     3
100
AcDbCircle
 10
27.2790561913614
 20
47.4
 30
0.0
 40
1.0
100
AcDbArc
 50
90.0
 51
150.0000000000017
  0
ARC
  5
30E
330
1F
100
AcDbEntity
  8
1
  6
Continuous
 62
     3
100
AcDbCircle
 10
24.9696551146029
 20
50.5
 30
0.0
 40
3.0
100
AcDbArc
 50
90.0
 51
149.9999999999999
  0
ARC
  5
30F
330
1F
100
AcDbEntity
  8
1
  6
Continuous
 62
     3
100
AcDbCircle
 10
22.0
 20
47.356406460551
 30
0.0
 40
2.00000000000002
100
AcDbArc
 50
150.0000000000003
 51
180.0
  0
ARC
  5
310
330
1F
100
AcDbEntity
  8
1
  6
Continuous
 62
     3
100
AcDbCircle
 10
-88.6158903501806
 20
52.3
 30
0.0
 40
1.200000000000003
100
AcDbArc
 50
90.0
 51
179.5996709156388
  0
ARC
  5
311
330
1F
100
AcDbEntity
  8
1
  6
Continuous
 62
     3
100
AcDbCircle
 10
-87.6564660448338
 20
44.7923048454132
 30
0.0
 40
1.0
100
AcDbArc
 50
90.0
 51
166.4737909397835
  0
ARC
  5
312
330
1F
100
AcDbEntity
  8
1
  6
Continuous
 62
     3
100
AcDbCircle
 10
-73.272973024226
 20
52.3
 30
0.0
 40
1.199999999999947
100
AcDbArc
 50
0.40032908436128
 51
90.0
  0
ARC
  5
313
330
1F
100
AcDbEntity
  8
1
  6
Continuous
 62
     3
100
AcDbCircle
 10
-74.2323973295728
 20
44.7923048454132
 30
0.0
 40
0.9999999999999696
100
AcDbArc
 50
13.52620906021636
 51
90.0
  0
ARC
  5
314
330
1F
100
AcDbEntity
  8
1
  6
Continuous
 62
     3
100
AcDbCircle
 10
6.34314575050763
 20
97.5
 30
0.0
 40
3.999999999999845
100
AcDbArc
 50
44.99999999999837
 51
90.0
  0
ARC
  5
315
330
1F
100
AcDbEntity
  8
1
  6
Continuous
 62
     3
100
AcDbCircle
 10
-10.0
 20
81.5
 30
0.0
 40
4.0
100
AcDbArc
 50
180.0
 51
270.0
  0
ARC
  5
316
102
{ACAD_REACTORS
330
35A
102
}
330
1F
100
AcDbEntity
  8
1
  6
Continuous
 62
     3
100
AcDbCircle
 10
34.4
 20
86.6
 30
0.0
 40
1.200000000000088
100
AcDbArc
 50
270.0
 51
0.0
  0
ARC
  5
317
102
{ACAD_REACTORS
330
35A
102
}
330
1F
100
AcDbEntity
  8
1
  6
Continuous
 62
     3
100
AcDbCircle
 10
34.6
 20
86.3999999999999
 30
0.0
 40
2.0
100
AcDbArc
 50
270.0
 51
0.0
  0
ARC
  5
318
330
1F
100
AcDbEntity
  8
1
  6
Continuous
 62
     3
100
AcDbCircle
 10
82.5283867006374
 20
92.6011861944187
 30
0.0
 40
5.000000000000039
100
AcDbArc
 50
199.9999999999993
 51
231.7019881331705
  0
ARC
  5
319
330
1F
100
AcDbEntity
  8
1
  6
Continuous
 62
     3
100
AcDbCircle
 10
82.5283867006374
 20
82.3988138055813
 30
0.0
 40
4.999999999999948
100
AcDbArc
 50
128.2980118668302
 51
159.9999999999992
  0
ARC
  5
31A
330
1F
100
AcDbEntity
  8
1
  6
Continuous
 62
     3
100
AcDbCircle
 10
76.2108845879142
 20
93.2926955155528
 30
0.0
 40
0.6999999999999788
100
AcDbArc
 50
20.00000000000389
 51
87.98331098162562
  0
ARC
  5
31B
330
1F
100
AcDbEntity
  8
1
  6
Continuous
 62
     3
100
AcDbCircle
 10
76.2108845879142
 20
81.7073044844471
 30
0.0
 40
0.6999999999999407
100
AcDbArc
 50
272.0166890183747
 51
339.9999999999961
  0
ARC
  5
31C
330
1F
100
AcDbEntity
  8
1
  6
Continuous
 62
     3
100
AcDbCircle
 10
-99.4328287359875
 20
29.9
 30
0.0
 40
2.0
100
AcDbArc
 50
90.0
 51
172.9999999999994
  0
ARC
  5
31D
330
1F
100
AcDbEntity
  8
1
  6
Continuous
 62
     3
100
AcDbCircle
 10
-62.4560346384191
 20
29.9
 30
0.0
 40
2.000000000000054
100
AcDbArc
 50
6.99999999999995
 51
90.0
  0
CIRCLE
  5
31E
330
1F
100
AcDbEntity
  8
1
  6
Continuous
 62
     3
100
AcDbCircle
 10
-80.9444316872033
 20
0.0
 30
0.0
 40
13.21470937871571
  0
CIRCLE
  5
31F
330
1F
100
AcDbEntity
  8
1
  6
Continuous
 62
     3
100
AcDbCircle
 10
-80.9444316872033
 20
0.0
 30
0.0
 40
16.0
  0
CIRCLE
  5
320
330
1F
100
AcDbEntity
  8
1
  6
Continuous
 62
     3
100
AcDbCircle
 10
-80.9444316872033
 20
0.0
 30
0.0
 40
12.0152235740789
  0
CIRCLE
  5
321
330
1F
100
AcDbEntity
  8
1
  6
Continuous
 62
     3
100
AcDbCircle
 10
-80.9444316872033
 20
0.0
 30
0.0
 40
8.0
  0
CIRCLE
  5
322
330
1F
100
AcDbEntity
  8
1
  6
Continuous
 62
     3
100
AcDbCircle
 10
0.0
 20
87.4999999999999
 30
0.0
 40
6.49358657959269
  0
CIRCLE
  5
323
330
1F
100
AcDbEntity
  8
1
  6
Continuous
 62
     3
100
AcDbCircle
 10
0.0
 20
87.4999999999999
 30
0.0
 40
4.00000000000004
  0
CIRCLE
  5
324
330
1F
100
AcDbEntity
  8
1
  6
Continuous
 62
     3
100
AcDbCircle
 10
0.0
 20
101.5
 30
0.0
 40
2.5
  0
CIRCLE
  5
325
330
1F
100
AcDbEntity
  8
1
  6
Continuous
 62
     3
100
AcDbCircle
 10
0.0
 20
101.5
 30
0.0
 40
3.0
  0
CIRCLE
  5
326
102
{ACAD_REACTORS
330
351
102
}
330
1F
100
AcDbEntity
  8
1
  6
Continuous
 62
     3
100
AcDbCircle
 10
65.3097266238516
 20
90.34658257664
 30
0.0
 40
0.6263590671359935
  0
SPLINE
  5
327
330
1F
100
AcDbEntity
  8
0
  6
Continuous
 62
     3
100
AcDbSpline
210
0.0
220
0.0
230
1.0
 70
     8
 71
     3
 72
    25
 73
    21
 74
    19
 42
0.000000001
 43
0.0000000001
 44
0.00000001
 40
0.0
 40
0.0
 40
0.0
 40
0.0
 40
0.3467275973755777
 40
0.6934552592087688
 40
1.709036723148028
 40
2.724691234332468
 40
3.82710757308076
 40
4.92951394080119
 40
6.127610914401862
 40
7.325701373770657
 40
7.809833944414152
 40
8.293961501977149
 40
8.791669374085798
 40
9.28937782206396
 40
9.487353283374903
 40
9.685328501685492
 40
9.886331952687954
 40
10.08733542383009
 40
10.22382431206222
 40
10.3603131992953
 40
10.3603131992953
 40
10.3603131992953
 40
10.3603131992953
 10
-99.3425294149577
 20
9.30000000000001
 30
0.0
 10
-99.3949673338358
 20
9.40299649665808
 30
0.0
 10
-99.49984319422406
 20
9.608989502527946
 30
0.0
 10
-99.76447217652441
 20
10.11348658075236
 30
0.0
 10
-100.1447892860147
 20
10.80904824524493
 30
0.0
 10
-100.6680413007509
 20
11.71319064832652
 30
0.0
 10
-101.2260789413957
 20
12.63033992061744
 30
0.0
 10
-101.8354058932248
 20
13.58717141140755
 30
0.0
 10
-102.4801084777816
 20
14.5590395749791
 30
0.0
 10
-103.0245975613127
 20
15.34987623652224
 30
0.0
 10
-103.4403682222986
 20
15.94029247901276
 30
0.0
 10
-103.7240389683243
 20
16.3381849871725
 30
0.0
 10
-104.0125884547059
 20
16.73814668508892
 30
0.0
 10
-104.2470769439475
 20
17.05948675500981
 30
0.0
 10
-104.4235349915038
 20
17.29948453228211
 30
0.0
 10
-104.5417294838444
 20
17.45956274165986
 30
0.0
 10
-104.660842054545
 20
17.62021723931346
 30
0.0
 10
-104.768034961278
 20
17.7641945535282
 30
0.0
 10
-104.8625781073235
 20
17.8907790620359
 30
0.0
 10
-104.9171471567756
 20
17.9635930236642
 30
0.0
 10
-104.944431687203
 20
18.0
 30
0.0
 11
-99.3425294149577
 21
9.30000000000001
 31
0.0
 11
-99.50046803981724
 21
9.608667163693159
 31
0.0
 11
-99.6613556034316
 21
9.915807626506199
 31
0.0
 11
-100.1483545399114
 21
10.80700780299165
 31
0.0
 11
-100.6566220302062
 21
11.68633610013562
 31
0.0
 11
-101.2292678393027
 21
12.62835444254411
 31
0.0
 11
-101.8210263532054
 21
13.55847360571379
 31
0.0
 11
-102.4829629221282
 21
14.55711084475731
 31
0.0
 11
-103.1620237938015
 21
15.5441757264636
 31
0.0
 11
-103.4407521213241
 21
15.94002274920284
 31
0.0
 11
-103.7217744394625
 21
16.33423836133229
 31
0.0
 11
-104.0129524591831
 21
16.73788237180604
 31
0.0
 11
-104.306315380739
 21
17.13994194010836
 31
0.0
 11
-104.4235885298622
 21
17.29944520682741
 31
0.0
 11
-104.5411820692785
 21
17.45871211154995
 31
0.0
 11
-104.660895620915
 21
17.62017744072562
 31
0.0
 11
-104.7809258409043
 21
17.78140752413247
 31
0.0
 11
-104.8626079163239
 21
17.89075675573834
 31
0.0
 11
-104.944431687203
 21
18.0
 31
0.0
  0
SPLINE
  5
328
330
1F
100
AcDbEntity
  8
0
  6
Continuous
 62
     3
100
AcDbSpline
210
0.0
220
0.0
230
1.0
 70
     8
 71
     3
 72
    11
 73
     7
 74
     5
 42
0.000000001
 43
0.0000000001
 44
0.00000001
 40
0.0
 40
0.0
 40
0.0
 40
0.0
 40
1.677299551282883
 40
3.355627259382673
 40
4.26387138577653
 40
5.162755884618639
 40
5.162755884618639
 40
5.162755884618639
 40
5.162755884618639
 10
-106.944431687203
 20
13.4419663351496
 30
0.0
 10
-106.716911473313
 20
13.95440604207219
 30
0.0
 10
-106.2617315815525
 20
14.97959957240123
 30
0.0
 10
-105.8540153714849
 20
16.32973315174337
 30
0.0
 10
-106.0457978975135
 20
17.6134359699464
 30
0.0
 10
-106.6459231606882
 20
17.85151486579223
 30
0.0
 10
-106.944431687203
 20
17.9699377702341
 30
0.0
 11
-106.944431687203
 21
13.4419663351496
 31
0.0
 11
-106.2954282300191
 21
14.98861699522618
 31
0.0
 11
-105.9444316872032
 21
16.62983158520314
 31
0.0
 11
-106.1727854677559
 21
17.50890038884899
 31
0.0
 11
-106.944431687203
 21
17.9699377702341
 31
0.0
  0
SPLINE
  5
329
330
1F
100
AcDbEntity
  8
0
  6
Continuous
 62
     3
100
AcDbSpline
210
0.0
220
0.0
230
1.0
 70
     8
 71
     3
 72
    11
 73
     7
 74
     5
 42
0.000000001
 43
0.0000000001
 44
0.00000001
 40
0.0
 40
0.0
 40
0.0
 40
0.0
 40
2.976083406933322
 40
5.95187831552729
 40
8.55645481051973
 40
11.16025336167947
 40
11.16025336167947
 40
11.16025336167947
 40
11.16025336167947
 10
-106.944431687203
 20
1.03987332589699
 30
0.0
 10
-106.6688701381632
 20
1.995110467979433
 30
0.0
 10
-106.1177737672875
 20
3.905492155944629
 30
0.0
 10
-105.8723602083013
 20
6.761419246053512
 30
0.0
 10
-106.0642385389478
 20
9.508452425707155
 30
0.0
 10
-106.6510631832421
 20
11.15047481265767
 30
0.0
 10
-106.944431687203
 20
11.971363374516
 30
0.0
 11
-106.944431687203
 21
1.03987332589699
 31
0.0
 11
-106.2128528791433
 21
3.924637595698271
 31
0.0
 11
-105.9444316872035
 21
6.888301782571575
 31
0.0
 11
-106.1804699750451
 21
9.482160810400337
 31
0.0
 11
-106.944431687203
 21
11.971363374516
 31
0.0
  0
SPLINE
  5
32A
330
1F
100
AcDbEntity
  8
0
  6
Continuous
 62
     3
100
AcDbSpline
210
0.0
220
0.0
230
1.0
 70
     8
 71
     3
 72
    11
 73
     7
 74
     5
 42
0.000000001
 43
0.0000000001
 44
0.00000001
 40
0.0
 40
0.0
 40
0.0
 40
0.0
 40
2.603798551159755
 40
5.208375046152211
 40
8.184169954746178
 40
11.16025336167946
 40
11.16025336167946
 40
11.16025336167946
 40
11.16025336167946
 10
-106.944431687203
 20
-11.9713633745161
 30
0.0
 10
-106.6510631832421
 20
-11.15047481265778
 30
0.0
 10
-106.0642385389477
 20
-9.508452425707251
 30
0.0
 10
-105.8723602083014
 20
-6.761419246053589
 30
0.0
 10
-106.1177737672875
 20
-3.905492155944718
 30
0.0
 10
-106.6688701381632
 20
-1.995110467979532
 30
0.0
 10
-106.944431687203
 20
-1.0398733258971
 30
0.0
 11
-106.944431687203
 21
-11.9713633745161
 31
0.0
 11
-106.1804699750451
 21
-9.482160810400433
 31
0.0
 11
-105.9444316872035
 21
-6.888301782571649
 31
0.0
 11
-106.2128528791433
 21
-3.924637595698347
 31
0.0
 11
-106.944431687203
 21
-1.0398733258971
 31
0.0
  0
SPLINE
  5
32B
330
1F
100
AcDbEntity
  8
0
  6
Continuous
 62
     3
100
AcDbSpline
210
0.0
220
0.0
230
1.0
 70
     8
 71
     3
 72
    11
 73
     7
 74
     5
 42
0.000000001
 43
0.0000000001
 44
0.00000001
 40
0.0
 40
0.0
 40
0.0
 40
0.0
 40
0.89888449884214
 40
1.807128625235962
 40
3.485456333335825
 40
5.162755884618702
 40
5.162755884618702
 40
5.162755884618702
 40
5.162755884618702
 10
-106.944431687203
 20
-17.9699377702342
 30
0.0
 10
-106.6459231606882
 20
-17.8515148657923
 30
0.0
 10
-106.0457978975135
 20
-17.61343596994645
 30
0.0
 10
-105.8540153714849
 20
-16.3297331517434
 30
0.0
 10
-106.2617315815525
 20
-14.97959957240125
 30
0.0
 10
-106.716911473313
 20
-13.95440604207219
 30
0.0
 10
-106.944431687203
 20
-13.4419663351496
 30
0.0
 11
-106.944431687203
 21
-17.9699377702342
 31
0.0
 11
-106.1727854677559
 21
-17.50890038884903
 31
0.0
 11
-105.9444316872033
 21
-16.62983158520321
 31
0.0
 11
-106.2954282300191
 21
-14.98861699522617
 31
0.0
 11
-106.944431687203
 21
-13.4419663351496
 31
0.0
  0
SPLINE
  5
32C
330
1F
100
AcDbEntity
  8
0
  6
Continuous
 62
     3
100
AcDbSpline
210
0.0
220
0.0
230
1.0
 70
     8
 71
     3
 72
    11
 73
     7
 74
     5
 42
0.000000001
 43
0.0000000001
 44
0.00000001
 40
0.0
 40
0.0
 40
0.0
 40
0.0
 40
0.1662633938226603
 40
0.3325267879656564
 40
0.3885930844156114
 40
0.4446593808642906
 40
0.4446593808642906
 40
0.4446593808642906
 40
0.4446593808642906
 10
11.8361539616739
 20
23.7895284637709
 30
0.0
 10
11.88507250491936
 20
23.81557620115487
 30
0.0
 10
11.9829095837735
 20
23.86767169044079
 30
0.0
 10
12.09695832703047
 20
23.92908253054262
 30
0.0
 10
12.17857568593852
 20
23.97324359044632
 30
0.0
 10
12.21142230364198
 20
23.99108119255963
 30
0.0
 10
12.2278456090291
 20
24.0
 30
0.0
 11
11.8361539616739
 21
23.7895284637709
 31
0.0
 11
11.98284875998976
 21
23.86778542686156
 31
0.0
 11
12.12926027351185
 21
23.94657111688252
 31
0.0
 11
12.17856886630915
 21
23.97325617404854
 31
0.0
 11
12.2278456090291
 21
24.0
 31
0.0
  0
SPLINE
  5
32D
330
1F
100
AcDbEntity
  8
0
  6
Continuous
 62
     3
100
AcDbSpline
210
0.0
220
0.0
230
1.0
 70
     8
 71
     3
 72
    11
 73
     7
 74
     5
 42
0.000000001
 43
0.0000000001
 44
0.00000001
 40
0.0
 40
0.0
 40
0.0
 40
0.0
 40
2.219768486721524
 40
4.439569390205747
 40
6.950880113271317
 40
9.462200740179536
 40
9.462200740179536
 40
9.462200740179536
 40
9.462200740179536
 10
9.30000000000004
 20
18.6903257595029
 30
0.0
 10
9.205723627326464
 20
17.95629372100539
 30
0.0
 10
9.017169520007375
 20
16.48821892272299
 30
0.0
 10
8.852120808323221
 20
14.17623519795615
 30
0.0
 10
8.75475838250556
 20
11.76353395355702
 30
0.0
 10
8.756859711169552
 20
10.08915574122804
 30
0.0
 10
8.75791038511696
 20
9.25196498419081
 30
0.0
 11
9.30000000000004
 21
18.6903257595029
 31
0.0
 11
9.037954706220814
 21
16.48607885863882
 31
0.0
 11
8.869772035538347
 21
14.27265828350897
 31
0.0
 11
8.772163995146457
 21
11.76324516084934
 31
0.0
 11
8.75791038511696
 21
9.25196498419081
 31
0.0
  0
SPLINE
  5
32E
330
1F
100
AcDbEntity
  8
0
  6
Continuous
 62
     3
100
AcDbSpline
210
0.0
220
0.0
230
1.0
 70
     8
 71
     3
 72
    11
 73
     7
 74
     5
 42
0.000000001
 43
0.0000000001
 44
0.00000001
 40
0.0
 40
0.0
 40
0.0
 40
0.0
 40
1.145884944480458
 40
2.29581481669148
 40
4.064514526827553
 40
5.833867494082627
 40
5.833867494082627
 40
5.833867494082627
 40
5.833867494082627
 10
11.8361539616739
 20
23.7895284637709
 30
0.0
 10
11.5290559402522
 20
23.55542342968418
 30
0.0
 10
10.91377586342153
 20
23.08638696934572
 30
0.0
 10
10.24934739184532
 20
21.87769584779246
 30
0.0
 10
9.691526407764332
 20
20.41884357271987
 30
0.0
 10
9.430524864179663
 20
19.26656928215777
 30
0.0
 10
9.30000000000004
 20
18.6903257595029
 30
0.0
 11
11.8361539616739
 21
23.7895284637709
 31
0.0
 11
10.97464416140753
 21
23.03398020188338
 31
0.0
 11
10.37065096863873
 21
22.05544509825945
 31
0.0
 11
9.731586810424568
 21
20.40623447420168
 31
0.0
 11
9.30000000000004
 21
18.6903257595029
 31
0.0
  0
SPLINE
  5
32F
330
1F
100
AcDbEntity
  8
0
  6
Continuous
 62
     3
100
AcDbSpline
210
0.0
220
0.0
230
1.0
 70
     8
 71
     3
 72
    19
 73
    15
 74
    13
 42
0.000000001
 43
0.0000000001
 44
0.00000001
 40
0.0
 40
0.0
 40
0.0
 40
0.0
 40
1.181360944709558
 40
2.362721203543891
 40
2.959161562715127
 40
3.555602306768153
 40
4.131010181995402
 40
4.706417669232656
 40
5.302527085207638
 40
5.898636688539321
 40
6.459639240838531
 40
7.020643963281014
 40
8.141208088086044
 40
9.261768416609526
 40
9.261768416609526
 40
9.261768416609526
 40
9.261768416609526
 10
8.99601667761962
 20
0.0
 30
0.0
 10
8.956072527357918
 20
0.3917791754801762
 30
0.0
 10
8.876184264696974
 20
1.175337300391986
 30
0.0
 10
8.809899680571384
 20
2.159690235355441
 30
0.0
 10
8.77081514783315
 20
2.950143001304023
 30
0.0
 10
8.749319346036614
 20
3.539199458175987
 30
0.0
 10
8.73481502318788
 20
4.12144792793816
 30
0.0
 10
8.72639817886126
 20
4.70370531066251
 30
0.0
 10
8.72352132950377
 20
5.292914913025481
 30
0.0
 10
8.725363508354606
 20
5.877324231053158
 30
0.0
 10
8.730763371119728
 20
6.450007164978459
 30
0.0
 10
8.740611407850185
 20
7.197464486535852
 30
0.0
 10
8.757693798378984
 20
8.131379620652474
 30
0.0
 10
8.75783818487253
 20
8.878436951510901
 30
0.0
 10
8.75791038511696
 20
9.25196498419081
 30
0.0
 11
8.99601667761962
 21
0.0
 31
0.0
 11
8.882925189080277
 21
1.175935371662561
 31
0.0
 11
8.801458956307414
 21
2.354483340545409
 31
0.0
 11
8.77209917002413
 21
2.950200643592235
 31
0.0
 11
8.750233950327441
 21
3.546240468988239
 31
0.0
 11
8.73581711426811
 21
4.12146770913514
 31
0.0
 11
8.727399630930705
 21
4.696813624582886
 31
0.0
 11
8.724319587809607
 21
5.292915083413892
 31
0.0
 11
8.726042883569095
 21
5.889022195851211
 31
0.0
 11
8.731113561673007
 21
6.450001831813829
 31
0.0
 11
8.738473223495847
 21
7.010958277589229
 31
0.0
 11
8.754314301139111
 21
8.131410428300889
 31
0.0
 11
8.75791038511696
 21
9.25196498419081
 31
0.0
  0
SPLINE
  5
330
330
1F
100
AcDbEntity
  8
0
  6
Continuous
 62
     3
100
AcDbSpline
210
0.0
220
0.0
230
1.0
 70
     8
 71
     3
 72
    11
 73
     7
 74
     5
 42
0.000000001
 43
0.0000000001
 44
0.00000001
 40
0.0
 40
0.0
 40
0.0
 40
0.0
 40
0.0576749014371173
 40
0.1153498028755602
 40
0.2851925607821939
 40
0.4550353174418299
 40
0.4550353174418299
 40
0.4550353174418299
 40
0.4550353174418299
 10
-12.4474922125614
 20
22.2111219691041
 30
0.0
 10
-12.43072207199626
 20
22.20172186779922
 30
0.0
 10
-12.39718178376583
 20
22.18292167786456
 30
0.0
 10
-12.31418037698193
 20
22.13657551269155
 30
0.0
 10
-12.19839517890416
 20
22.07224937970086
 30
0.0
 10
-12.0991450889853
 20
22.01775033739777
 30
0.0
 10
-12.0495200402527
 20
21.990500823523
 30
0.0
 11
-12.4474922125614
 21
22.2111219691041
 31
0.0
 11
-12.39717411380273
 21
22.18293539081897
 31
0.0
 11
-12.34682019786669
 21
22.15481284811714
 31
0.0
 11
-12.19832754801803
 21
22.07237198830114
 31
0.0
 11
-12.0495200402527
 21
21.990500823523
 31
0.0
  0
SPLINE
  5
331
330
1F
100
AcDbEntity
  8
0
  6
Continuous
 62
     3
100
AcDbSpline
210
0.0
220
0.0
230
1.0
 70
     8
 71
     3
 72
    19
 73
    15
 74
    13
 42
0.000000001
 43
0.0000000001
 44
0.00000001
 40
0.0
 40
0.0
 40
0.0
 40
0.0
 40
3.905727812335059
 40
7.811429329986111
 40
9.602839727949807
 40
11.39405575515206
 40
13.00693782596953
 40
14.62038555742049
 40
16.01303714861416
 40
17.40399993106914
 40
18.54128300684991
 40
19.68297986957211
 40
21.20328168685192
 40
22.71406527467381
 40
22.71406527467381
 40
22.71406527467381
 40
22.71406527467381
 10
-9.73084980365326
 20
0.0
 30
0.0
 10
-9.582063934679615
 20
1.293600536217838
 30
0.0
 10
-9.284493188880653
 20
3.88079289869074
 30
0.0
 10
-9.113793779588015
 20
7.07948589712004
 30
0.0
 10
-9.075747612037368
 20
9.575461037784043
 30
0.0
 10
-9.101650794926364
 20
11.30742312104706
 30
0.0
 10
-9.179720802340594
 20
12.97842391650611
 30
0.0
 10
-9.307864726316565
 20
14.51308587623998
 30
0.0
 10
-9.487755193644725
 20
15.96831969524188
 30
0.0
 10
-9.7133748430724
 20
17.25573352113634
 30
0.0
 10
-9.991804174506676
 20
18.44961385696513
 30
0.0
 10
-10.37534147974315
 20
19.65086391971771
 30
0.0
 10
-10.89663272129468
 20
20.97652727840822
 30
0.0
 10
-11.66602962101876
 20
21.65321795781189
 30
0.0
 10
-12.0495200402527
 20
21.990500823523
 30
0.0
 11
-9.73084980365326
 21
0.0
 31
0.0
 11
-9.32417129235897
 21
3.884497686139512
 31
0.0
 11
-9.110202781878883
 21
7.784333814079181
 31
0.0
 11
-9.084763663500134
 21
9.575563577473039
 31
0.0
 11
-9.112505931789713
 21
11.366564756301
 31
0.0
 11
-9.189535556998026
 21
12.97760634825336
 31
0.0
 11
-9.325393981055155
 21
14.58532400704545
 31
0.0
 11
-9.499412153555404
 21
15.9670606424737
 31
0.0
 11
-9.741995497913926
 21
17.33670686782251
 31
0.0
 11
-10.00570462573703
 21
18.44299358007937
 31
0.0
 11
-10.34886168766612
 21
19.5318989735505
 31
0.0
 11
-10.9961197241601
 21
20.90753505624853
 31
0.0
 11
-12.0495200402527
 21
21.990500823523
 31
0.0
  0
SPLINE
  5
332
330
1F
100
AcDbEntity
  8
0
  6
Continuous
 62
     3
100
AcDbSpline
210
0.0
220
0.0
230
1.0
 70
     8
 71
     3
 72
    11
 73
     7
 74
     5
 42
0.000000001
 43
0.0000000001
 44
0.00000001
 40
0.0
 40
0.0
 40
0.0
 40
0.0
 40
1.677299551282959
 40
3.355627259382767
 40
4.263871385776663
 40
5.162755884618847
 40
5.162755884618847
 40
5.162755884618847
 40
5.162755884618847
 10
-26.0
 20
13.4419663351496
 30
0.0
 10
-25.77247978610989
 20
13.95440604207215
 30
0.0
 10
-25.31729989434911
 20
14.97959957240112
 30
0.0
 10
-24.90958368428166
 20
16.32973315174338
 30
0.0
 10
-25.10136621031042
 20
17.61343596994642
 30
0.0
 10
-25.70149147348514
 20
17.85151486579223
 30
0.0
 10
-26.0
 20
17.9699377702341
 30
0.0
 11
-26.0
 21
13.4419663351496
 31
0.0
 11
-25.35099654281581
 21
14.98861699522613
 31
0.0
 11
-25.00000000000004
 21
16.62983158520313
 31
0.0
 11
-25.22835378055283
 21
17.50890038884899
 31
0.0
 11
-26.0
 21
17.9699377702341
 31
0.0
  0
SPLINE
  5
333
330
1F
100
AcDbEntity
  8
0
  6
Continuous
 62
     3
100
AcDbSpline
210
0.0
220
0.0
230
1.0
 70
     8
 71
     3
 72
    11
 73
     7
 74
     5
 42
0.000000001
 43
0.0000000001
 44
0.00000001
 40
0.0
 40
0.0
 40
0.0
 40
0.0
 40
2.976083406933443
 40
5.951878315527427
 40
8.556454810519885
 40
11.16025336167969
 40
11.16025336167969
 40
11.16025336167969
 40
11.16025336167969
 10
-26.0
 20
1.03987332589708
 30
0.0
 10
-25.72443845096003
 20
1.995110467979509
 30
0.0
 10
-25.17334208008383
 20
3.905492155944642
 30
0.0
 10
-24.92792852109788
 20
6.761419246053634
 30
0.0
 10
-25.11980685174453
 20
9.508452425707281
 30
0.0
 10
-25.70663149603901
 20
11.15047481265778
 30
0.0
 10
-26.0
 20
11.9713633745161
 30
0.0
 11
-26.0
 21
1.03987332589708
 31
0.0
 11
-25.26842119193982
 21
3.924637595698356
 31
0.0
 11
-25.00000000000005
 21
6.888301782571681
 31
0.0
 11
-25.23603828784191
 21
9.48216081040044
 31
0.0
 11
-26.0
 21
11.9713633745161
 31
0.0
  0
SPLINE
  5
334
330
1F
100
AcDbEntity
  8
0
  6
Continuous
 62
     3
100
AcDbSpline
210
0.0
220
0.0
230
1.0
 70
     8
 71
     3
 72
    11
 73
     7
 74
     5
 42
0.000000001
 43
0.0000000001
 44
0.00000001
 40
0.0
 40
0.0
 40
0.0
 40
0.0
 40
2.603798551159716
 40
5.208375046152133
 40
8.184169954746109
 40
11.16025336167956
 40
11.16025336167956
 40
11.16025336167956
 40
11.16025336167956
 10
-26.0
 20
-11.9713633745159
 30
0.0
 10
-25.706631496039
 20
-11.15047481265761
 30
0.0
 10
-25.11980685174452
 20
-9.508452425707162
 30
0.0
 10
-24.92792852109789
 20
-6.761419246053556
 30
0.0
 10
-25.17334208008383
 20
-3.905492155944586
 30
0.0
 10
-25.72443845096003
 20
-1.995110467979452
 30
0.0
 10
-26.0
 20
-1.03987332589702
 30
0.0
 11
-26.0
 21
-11.9713633745159
 31
0.0
 11
-25.2360382878419
 21
-9.482160810400337
 31
0.0
 11
-25.00000000000005
 21
-6.888301782571618
 31
0.0
 11
-25.26842119193982
 21
-3.924637595698302
 31
0.0
 11
-26.0
 21
-1.03987332589702
 31
0.0
  0
SPLINE
  5
335
330
1F
100
AcDbEntity
  8
0
  6
Continuous
 62
     3
100
AcDbSpline
210
0.0
220
0.0
230
1.0
 70
     8
 71
     3
 72
    11
 73
     7
 74
     5
 42
0.000000001
 43
0.0000000001
 44
0.00000001
 40
0.0
 40
0.0
 40
0.0
 40
0.0
 40
0.898884498842279
 40
1.80712862523617
 40
3.485456333335912
 40
5.162755884618777
 40
5.162755884618777
 40
5.162755884618777
 40
5.162755884618777
 10
-26.0
 20
-17.9699377702341
 30
0.0
 10
-25.70149147348512
 20
-17.85151486579221
 30
0.0
 10
-25.10136621031037
 20
-17.61343596994636
 30
0.0
 10
-24.90958368428161
 20
-16.32973315174333
 30
0.0
 10
-25.31729989434912
 20
-14.97959957240112
 30
0.0
 10
-25.77247978610988
 20
-13.95440604207223
 30
0.0
 10
-26.0
 20
-13.4419663351497
 30
0.0
 11
-26.0
 21
-17.9699377702341
 31
0.0
 11
-25.22835378055277
 21
-17.50890038884891
 31
0.0
 11
-24.99999999999999
 21
-16.62983158520305
 31
0.0
 11
-25.35099654281581
 21
-14.98861699522612
 31
0.0
 11
-26.0
 21
-13.4419663351497
 31
0.0
  0
SPLINE
  5
336
330
1F
100
AcDbEntity
  8
0
  6
Continuous
 62
     3
100
AcDbSpline
210
0.0
220
0.0
230
1.0
 70
     8
 71
     3
 72
     9
 73
     5
 74
     3
 42
0.000000001
 43
0.0000000001
 44
0.00000001
 40
0.0
 40
0.0
 40
0.0
 40
0.0
 40
2.572869189331848
 40
5.145715266388322
 40
5.145715266388322
 40
5.145715266388322
 40
5.145715266388322
 10
10.257145513814
 20
77.5
 30
0.0
 10
10.08426861140809
 20
76.65992054721592
 30
0.0
 10
9.738516379191438
 20
74.97976918432022
 30
0.0
 10
9.446171682146709
 20
73.28950654732878
 30
0.0
 10
9.29999999999998
 20
72.4443790229808
 30
0.0
 11
10.257145513814
 21
77.5
 31
0.0
 11
9.75186682013474
 21
74.97723379845249
 31
0.0
 11
9.29999999999998
 21
72.4443790229808
 31
0.0
  0
SPLINE
  5
337
330
1F
100
AcDbEntity
  8
0
  6
Continuous
 62
     3
100
AcDbSpline
210
0.0
220
0.0
230
1.0
 70
     8
 71
     3
 72
    27
 73
    23
 74
    21
 42
0.000000001
 43
0.0000000001
 44
0.00000001
 40
0.0
 40
0.0
 40
0.0
 40
0.0
 40
0.0912026543630148
 40
0.1823944559760264
 40
0.2302044841637291
 40
0.278015969564766
 40
0.3246835372651474
 40
0.3713530281167637
 40
0.4771827779553968
 40
0.5831200949867786
 40
0.6968884856484284
 40
0.8106350262250238
 40
0.9497075884982746
 40
1.088796726458186
 40
1.243077901556242
 40
1.397349687723326
 40
1.487858493259955
 40
1.578367564976677
 40
1.673266064467368
 40
1.76816493189296
 40
1.987470881397045
 40
2.206777715067037
 40
2.206777715067037
 40
2.206777715067037
 40
2.206777715067037
 10
8.99601667761962
 20
63.8039833223804
 30
0.0
 10
8.975211523268394
 20
63.82619466067749
 30
0.0
 10
8.933603700691563
 20
63.87061470326574
 30
0.0
 10
8.88972426912856
 20
63.93390166475071
 30
0.0
 10
8.858327473644213
 20
63.98768967371727
 30
0.0
 10
8.836834812230668
 20
64.03000456980416
 30
0.0
 10
8.81780406976672
 20
64.0730553603793
 30
0.0
 10
8.794056504991742
 20
64.1350772842819
 30
0.0
 10
8.769548097763591
 20
64.21782786722534
 30
0.0
 10
8.748066858539715
 20
64.32430051184882
 30
0.0
 10
8.734151991919461
 20
64.43466517221829
 30
0.0
 10
8.72604968046228
 20
64.55664025449207
 30
0.0
 10
8.723439041172178
 20
64.68729191624661
 30
0.0
 10
8.72566465438963
 20
64.83143858432283
 30
0.0
 10
8.731085687744304
 20
64.98056028228984
 30
0.0
 10
8.737436557941294
 20
65.11342972275745
 30
0.0
 10
8.742848054743963
 20
65.22506182202676
 30
0.0
 10
8.747138551884568
 20
65.31693378052111
 30
0.0
 10
8.751126555802056
 20
65.4102851498374
 30
0.0
 10
8.756043323877595
 20
65.54656232583372
 30
0.0
 10
8.760462282424829
 20
65.72437734436843
 30
0.0
 10
8.758761023046825
 20
65.87058254801691
 30
0.0
 10
8.7579103851169
 20
65.9436852971691
 30
0.0
 11
8.99601667761962
 21
63.8039833223804
 31
0.0
 11
8.935311791720329
 21
63.87204830648295
 31
0.0
 11
8.882804048038025
 21
63.94660621943515
 31
0.0
 11
8.858734469912012
 21
63.98791547106739
 31
0.0
 11
8.83705450275002
 21
64.03052905068013
 31
0.0
 11
8.81816816801197
 21
64.07320419822747
 31
0.0
 11
8.80145895630742
 21
64.11677992076162
 31
0.0
 11
8.771083905027119
 21
64.21815690070528
 31
0.0
 11
8.749822712736707
 21
64.32193877149734
 31
0.0
 11
8.735267698953184
 21
64.43477226896567
 31
0.0
 11
8.727399630930705
 21
64.54824635799554
 31
0.0
 11
8.724260190067143
 21
64.6872834801636
 31
0.0
 11
8.726045674981926
 21
64.82636115707606
 31
0.0
 11
8.731379283897152
 21
64.9805501108686
 31
0.0
 11
8.738473223495788
 21
65.13465870863922
 31
0.0
 11
8.742821368076862
 21
65.22506300875173
 31
0.0
 11
8.747011863396965
 21
65.31547501997147
 31
0.0
 11
8.751021748101087
 21
65.41028876362591
 31
0.0
 11
8.754441086546223
 21
65.50512600902368
 31
0.0
 11
8.759128741234115
 21
65.72438185273109
 31
0.0
 11
8.7579103851169
 21
65.9436852971691
 31
0.0
  0
SPLINE
  5
338
330
1F
100
AcDbEntity
  8
0
  6
Continuous
 62
     3
100
AcDbSpline
210
0.0
220
0.0
230
1.0
 70
     8
 71
     3
 72
    27
 73
    23
 74
    21
 42
0.000000001
 43
0.0000000001
 44
0.00000001
 40
0.0
 40
0.0
 40
0.0
 40
0.0
 40
0.0912026543630148
 40
0.1823944559760264
 40
0.2302044841637291
 40
0.278015969564766
 40
0.3246835372651474
 40
0.3713530281167637
 40
0.4771827779553968
 40
0.5831200949867786
 40
0.6968884856484284
 40
0.8106350262250238
 40
0.9497075884982746
 40
1.088796726458186
 40
1.243077901556242
 40
1.397349687723326
 40
1.487858493259955
 40
1.578367564976677
 40
1.673266064467368
 40
1.76816493189296
 40
1.987470881397045
 40
2.206777715067037
 40
2.206777715067037
 40
2.206777715067037
 40
2.206777715067037
 10
8.99601667761962
 20
63.8039833223804
 30
0.0
 10
8.975211523268394
 20
63.82619466067749
 30
0.0
 10
8.933603700691563
 20
63.87061470326574
 30
0.0
 10
8.88972426912856
 20
63.93390166475071
 30
0.0
 10
8.858327473644213
 20
63.98768967371727
 30
0.0
 10
8.836834812230668
 20
64.03000456980416
 30
0.0
 10
8.81780406976672
 20
64.0730553603793
 30
0.0
 10
8.794056504991742
 20
64.1350772842819
 30
0.0
 10
8.769548097763591
 20
64.21782786722534
 30
0.0
 10
8.748066858539715
 20
64.32430051184882
 30
0.0
 10
8.734151991919461
 20
64.43466517221829
 30
0.0
 10
8.72604968046228
 20
64.55664025449207
 30
0.0
 10
8.723439041172178
 20
64.68729191624661
 30
0.0
 10
8.72566465438963
 20
64.83143858432283
 30
0.0
 10
8.731085687744304
 20
64.98056028228984
 30
0.0
 10
8.737436557941294
 20
65.11342972275745
 30
0.0
 10
8.742848054743963
 20
65.22506182202676
 30
0.0
 10
8.747138551884568
 20
65.31693378052111
 30
0.0
 10
8.751126555802056
 20
65.4102851498374
 30
0.0
 10
8.756043323877595
 20
65.54656232583372
 30
0.0
 10
8.760462282424829
 20
65.72437734436843
 30
0.0
 10
8.758761023046825
 20
65.87058254801691
 30
0.0
 10
8.7579103851169
 20
65.9436852971691
 30
0.0
 11
8.99601667761962
 21
63.8039833223804
 31
0.0
 11
8.935311791720329
 21
63.87204830648295
 31
0.0
 11
8.882804048038025
 21
63.94660621943515
 31
0.0
 11
8.858734469912012
 21
63.98791547106739
 31
0.0
 11
8.83705450275002
 21
64.03052905068013
 31
0.0
 11
8.81816816801197
 21
64.07320419822747
 31
0.0
 11
8.80145895630742
 21
64.11677992076162
 31
0.0
 11
8.771083905027119
 21
64.21815690070528
 31
0.0
 11
8.749822712736707
 21
64.32193877149734
 31
0.0
 11
8.735267698953184
 21
64.43477226896567
 31
0.0
 11
8.727399630930705
 21
64.54824635799554
 31
0.0
 11
8.724260190067143
 21
64.6872834801636
 31
0.0
 11
8.726045674981926
 21
64.82636115707606
 31
0.0
 11
8.731379283897152
 21
64.9805501108686
 31
0.0
 11
8.738473223495788
 21
65.13465870863922
 31
0.0
 11
8.742821368076862
 21
65.22506300875173
 31
0.0
 11
8.747011863396965
 21
65.31547501997147
 31
0.0
 11
8.751021748101087
 21
65.41028876362591
 31
0.0
 11
8.754441086546223
 21
65.50512600902368
 31
0.0
 11
8.759128741234115
 21
65.72438185273109
 31
0.0
 11
8.7579103851169
 21
65.9436852971691
 31
0.0
  0
SPLINE
  5
339
330
1F
100
AcDbEntity
  8
0
  6
Continuous
 62
     3
100
AcDbSpline
210
0.0
220
0.0
230
1.0
 70
     8
 71
     3
 72
    11
 73
     7
 74
     5
 42
0.000000001
 43
0.0000000001
 44
0.00000001
 40
0.0
 40
0.0
 40
0.0
 40
0.0
 40
1.863350356675865
 40
3.726686236696784
 40
5.127946352473848
 40
6.529117128684851
 40
6.529117128684851
 40
6.529117128684851
 40
6.529117128684851
 10
9.29999999999998
 20
72.4443790229808
 30
0.0
 10
9.21593807586769
 20
71.828926275391
 30
0.0
 10
9.047814895759078
 20
70.5980255598516
 30
0.0
 10
8.875290149138653
 20
68.89727451544339
 30
0.0
 10
8.76230800680012
 20
67.34529366445184
 30
0.0
 10
8.759376222920512
 20
66.41087815683738
 30
0.0
 10
8.7579103851169
 20
65.9436852971691
 30
0.0
 11
9.29999999999998
 21
72.4443790229808
 31
0.0
 11
9.058499931246631
 21
70.59674478803392
 31
0.0
 11
8.869772035538318
 21
68.74299119450477
 31
0.0
 11
8.778539228547501
 21
67.34470421070858
 31
0.0
 11
8.7579103851169
 21
65.9436852971691
 31
0.0
  0
SPLINE
  5
33A
330
1F
100
AcDbEntity
  8
0
  6
Continuous
 62
     3
100
AcDbSpline
210
0.0
220
0.0
230
1.0
 70
     8
 71
     3
 72
    31
 73
    27
 74
    25
 42
0.000000001
 43
0.0000000001
 44
0.00000001
 40
0.0
 40
0.0
 40
0.0
 40
0.0
 40
0.1397622950220867
 40
0.2795244146328691
 40
0.4078728400113133
 40
0.5362419764197763
 40
0.6632997753065561
 40
0.7903480649498363
 40
0.9164504011715264
 40
1.042566734616
 40
1.16817308850642
 40
1.293729021722501
 40
1.302281221527409
 40
1.31083311256857
 40
1.319378611517141
 40
1.327924446481676
 40
1.461045188507098
 40
1.594229032533189
 40
1.726640551920725
 40
1.859017417114597
 40
1.954610309465228
 40
2.050195155279809
 40
2.145611260670953
 40
2.241032481515325
 40
2.435852891631625
 40
2.63064388134432
 40
2.63064388134432
 40
2.63064388134432
 40
2.63064388134432
 10
6.10228389518915
 20
109.595434880368
 30
0.0
 10
6.148871686779316
 20
109.5966360742799
 30
0.0
 10
6.242047211667103
 20
109.599038445961
 30
0.0
 10
6.377938802635936
 20
109.5914680987116
 30
0.0
 10
6.509309112516516
 20
109.5765209689829
 30
0.0
 10
6.635376900379888
 20
109.5543059629918
 30
0.0
 10
6.759451887372977
 20
109.5246643034319
 30
0.0
 10
6.880781197492131
 20
109.4877666042649
 30
0.0
 10
6.999333201671937
 20
109.4436316487794
 30
0.0
 10
7.114502510186933
 20
109.3924643987087
 30
0.0
 10
7.226087613683904
 20
109.3342928219844
 30
0.0
 10
7.300240890994189
 20
109.2894851235749
 30
0.0
 10
7.340075881853637
 20
109.2635144792199
 30
0.0
 10
7.347217657635066
 20
109.2588138546623
 30
0.0
 10
7.354337130721381
 20
109.2540833461053
 30
0.0
 10
7.395919548286511
 20
109.2261915890256
 30
0.0
 10
7.470172202510604
 20
109.1723818598539
 30
0.0
 10
7.572247610990257
 20
109.0871070809673
 30
0.0
 10
7.667947763947979
 20
108.9950845919473
 30
0.0
 10
7.74855185383322
 20
108.9058735016213
 30
0.0
 10
7.815852373453339
 20
108.821538380601
 30
0.0
 10
7.871526992958456
 20
108.7438577585286
 30
0.0
 10
7.923102595031409
 20
108.6634505966059
 30
0.0
 10
7.986655332422222
 20
108.5516889657208
 30
0.0
 10
8.056493048414174
 20
108.4053105816583
 30
0.0
 10
8.096080157958676
 20
108.2814965884603
 30
0.0
 10
8.11587221116741
 20
108.219594264207
 30
0.0
 11
6.10228389518915
 21
109.595434880368
 31
0.0
 11
6.242035778936169
 21
109.5971408299217
 31
0.0
 11
6.381608222527237
 21
109.5898618700758
 31
0.0
 11
6.509119488834157
 21
109.5752264544025
 31
0.0
 11
6.635543571372754
 21
109.5529646788187
 31
0.0
 11
6.759119057259817
 21
109.523421766792
 31
0.0
 11
6.88066665976908
 21
109.4864427412926
 31
0.0
 11
6.998839571315647
 21
109.4424318076991
 31
0.0
 11
7.114085585134538
 21
109.3912098791945
 31
0.0
 11
7.225459002896717
 21
109.3331330502992
 31
0.0
 11
7.332908444887432
 21
109.2681799142215
 31
0.0
 11
7.340072577311048
 21
109.2635092259843
 31
0.0
 11
7.347216017156997
 21
109.2588075126755
 31
0.0
 11
7.354333577151497
 21
109.2540782534845
 31
0.0
 11
7.361430700055535
 21
109.2493177763845
 31
0.0
 11
7.469213796814814
 21
109.1711900851594
 31
0.0
 11
7.57140743679691
 21
109.08578284664
 31
0.0
 11
7.666843299578307
 21
108.9939961008334
 31
0.0
 11
7.75557534792944
 21
108.8957603731564
 31
0.0
 11
7.815197281327399
 21
108.8210393840329
 31
0.0
 11
7.870880783061443
 21
108.7433489053242
 31
0.0
 11
7.922372819464398
 21
108.6630195616032
 31
0.0
 11
7.969622622931354
 21
108.5801180201253
 31
0.0
 11
8.052368838822817
 21
108.4037432583625
 31
0.0
 11
8.11587221116741
 21
108.219594264207
 31
0.0
  0
SPLINE
  5
33B
330
1F
100
AcDbEntity
  8
0
  6
Continuous
 62
     3
100
AcDbSpline
210
0.0
220
0.0
230
1.0
 70
     8
 71
     3
 72
    73
 73
    69
 74
    67
 42
0.000000001
 43
0.0000000001
 44
0.00000001
 40
0.0
 40
0.0
 40
0.0
 40
0.0
 40
0.0723044316524763
 40
0.1446084123189363
 40
0.1781090819768801
 40
0.2116096413112472
 40
0.2432719036554854
 40
0.2749341167391941
 40
0.3046882085509509
 40
0.3344420586040769
 40
0.3622047003413351
 40
0.3899677908494993
 40
0.4377106933735542
 40
0.485455039055874
 40
0.5331949498152457
 40
0.5809345156898916
 40
0.6287171556074794
 40
0.6764997552417089
 40
0.7243706641355542
 40
0.7722421260860651
 40
0.8284859679180266
 40
0.8847306115909351
 40
0.9410271848741927
 40
0.9973236448384313
 40
1.053736846400169
 40
1.110149780779829
 40
1.166739370118699
 40
1.223330286903666
 40
1.280157990924849
 40
1.336980791189021
 40
1.337975329214677
 40
1.338969865343677
 40
1.339963151929904
 40
1.340956439952859
 40
1.374621936546443
 40
1.40828840037418
 40
1.440391831270855
 40
1.472494958464225
 40
1.502967463769744
 40
1.533439875789968
 40
1.562202998667161
 40
1.590966365615225
 40
1.633221698768467
 40
1.675477647692852
 40
1.717832955264312
 40
1.760188258776081
 40
1.802659396911321
 40
1.845129977961192
 40
1.874097610675668
 40
1.903064982530805
 40
1.933884929165357
 40
1.964705025714177
 40
1.997316850807319
 40
2.029928766394073
 40
2.064281240142388
 40
2.098633606079612
 40
2.127625135055877
 40
2.156616569588178
 40
2.187432620734094
 40
2.21824879501439
 40
2.250827702747718
 40
2.283406594430231
 40
2.317695177815486
 40
2.351984120038797
 40
2.398417844734723
 40
2.444852157868389
 40
2.537983697102797
 40
2.631115266754386
 40
2.631115266754386
 40
2.631115266754386
 40
2.631115266754386
 10
-8.1158722111673
 20
108.219594264207
 30
0.0
 10
-8.108974779460894
 20
108.2426908229991
 30
0.0
 10
-8.095179945107155
 20
108.2888837922221
 30
0.0
 10
-8.075343787546746
 20
108.3448689962483
 30
0.0
 10
-8.058698028075131
 20
108.3882185205094
 30
0.0
 10
-8.04633258662805
 20
108.4186956929274
 30
0.0
 10
-8.033670307425943
 20
108.4483847040052
 30
0.0
 10
-8.02100426461068
 20
108.4767095317997
 30
0.0
 10
-8.008133676395243
 20
108.5042410245508
 30
0.0
 10
-7.995386112759367
 20
108.5303908717679
 30
0.0
 10
-7.982528957216146
 20
108.5557448530473
 30
0.0
 10
-7.966495511814447
 20
108.5862070033178
 30
0.0
 10
-7.946611978236322
 20
108.622164007669
 30
0.0
 10
-7.922425467529591
 20
108.6633325984414
 30
0.0
 10
-7.897176300706318
 20
108.7038569767676
 30
0.0
 10
-7.87087657778332
 20
108.7437227954997
 30
0.0
 10
-7.843543959763526
 20
108.782905017731
 30
0.0
 10
-7.815181217675375
 20
108.8214024755619
 30
0.0
 10
-7.785815431286842
 20
108.8591779641098
 30
0.0
 10
-7.753698311417352
 20
108.8983657771116
 30
0.0
 10
-7.718668118788672
 20
108.9387517933572
 30
0.0
 10
-7.680537492463458
 20
108.9801326395201
 30
0.0
 10
-7.641172763870066
 20
109.0203658880563
 30
0.0
 10
-7.600586392275748
 20
109.0594473349145
 30
0.0
 10
-7.558828848795549
 20
109.0973325447658
 30
0.0
 10
-7.515895867588938
 20
109.1340307687125
 30
0.0
 10
-7.471854664091163
 20
109.1694858438504
 30
0.0
 10
-7.426682609798945
 20
109.2037178950059
 30
0.0
 10
-7.380466535301117
 20
109.236660038927
 30
0.0
 10
-7.348710251191847
 20
109.2579299407544
 30
0.0
 10
-7.332263385663775
 20
109.2685983747332
 30
0.0
 10
-7.331429087843071
 20
109.2691389508109
 30
0.0
 10
-7.330594866537268
 20
109.2696788783731
 30
0.0
 10
-7.320614882627698
 20
109.2761310008022
 30
0.0
 10
-7.301379353423036
 20
109.2883276501853
 30
0.0
 10
-7.273086807281112
 20
109.3055970943158
 30
0.0
 10
-7.244960245835449
 20
109.3221300139136
 30
0.0
 10
-7.217496563423731
 20
109.3376814521923
 30
0.0
 10
-7.190269478293404
 20
109.3525392098075
 30
0.0
 10
-7.163804429218492
 20
109.3664618886723
 30
0.0
 10
-7.137644841170745
 20
109.3797343554363
 30
0.0
 10
-7.107770469250507
 20
109.3943582731571
 30
0.0
 10
-7.073567901099968
 20
109.4103609880299
 30
0.0
 10
-7.034896285765639
 20
109.4274813851788
 30
0.0
 10
-6.995846402326517
 20
109.4438072076196
 30
0.0
 10
-6.956399985808986
 20
109.4593468675436
 30
0.0
 10
-6.91660498766023
 20
109.4740816477383
 30
0.0
 10
-6.880731034789916
 20
109.4865306870631
 30
0.0
 10
-6.848926684383308
 20
109.4969562592234
 30
0.0
 10
-6.82068684398897
 20
109.5057789531619
 30
0.0
 10
-6.791731109601905
 20
109.5143709117147
 30
0.0
 10
-6.761482086421175
 20
109.522862865272
 30
0.0
 10
-6.730530240552165
 20
109.5310483611378
 30
0.0
 10
-6.698312123751566
 20
109.539035475537
 30
0.0
 10
-6.665405609835087
 20
109.5466399154902
 30
0.0
 10
-6.633559858493802
 20
109.553455534199
 30
0.0
 10
-6.603369103147398
 20
109.559446204646
 30
0.0
 10
-6.57425861451607
 20
109.5648103613745
 30
0.0
 10
-6.54447581703539
 20
109.5698666276382
 30
0.0
 10
-6.513441333127589
 20
109.5746750957193
 30
0.0
 10
-6.481756817340196
 20
109.5791041749981
 30
0.0
 10
-6.448859994649792
 20
109.5831936583875
 30
0.0
 10
-6.415336559158261
 20
109.586832220504
 30
0.0
 10
-6.377160791082586
 20
109.5903600529219
 30
0.0
 10
-6.334885641502106
 20
109.5934762012512
 30
0.0
 10
-6.272966913182348
 20
109.5966718246242
 30
0.0
 10
-6.19538141582759
 20
109.5984122068529
 30
0.0
 10
-6.133316405334441
 20
109.5964273275551
 30
0.0
 10
-6.10228389518915
 20
109.595434880368
 30
0.0
 11
-8.1158722111673
 21
108.219594264207
 31
0.0
 11
-8.094602325920663
 21
108.2886994238573
 31
0.0
 11
-8.070621002280335
 21
108.3569105808509
 31
0.0
 11
-8.05860023133245
 21
108.3881803100822
 31
0.0
 11
-8.046008416300028
 21
108.4192243706792
 31
0.0
 11
-8.033586336651725
 21
108.4483480863811
 31
0.0
 11
-8.02066149942743
 21
108.4772521404211
 31
0.0
 11
-8.008060775731273
 21
108.5042063192751
 31
0.0
 11
-7.995022994261733
 21
108.5309515592581
 31
0.0
 11
-7.982466637642546
 21
108.5557124598118
 31
0.0
 11
-7.969535643402136
 21
108.5802802963717
 31
0.0
 11
-7.946432186380613
 21
108.6220608545783
 31
0.0
 11
-7.922247501463023
 21
108.6632266606086
 31
0.0
 11
-7.897002328742391
 21
108.7037455495041
 31
0.0
 11
-7.870713827110289
 21
108.7435950269617
 31
0.0
 11
-7.843376548005553
 21
108.7827849984967
 31
0.0
 11
-7.815034792070827
 21
108.8212547491756
 31
0.0
 11
-7.785654895692177
 21
108.8590495322151
 31
0.0
 11
-7.755310568071538
 21
108.8960751809938
 31
0.0
 11
-7.71845836791472
 21
108.9385638278283
 31
0.0
 11
-7.680345744782404
 21
108.9799267087837
 31
0.0
 11
-7.640975819883828
 21
109.0201673995959
 31
0.0
 11
-7.600424353116548
 21
109.0592169830355
 31
0.0
 11
-7.558645133535286
 21
109.0971240554659
 31
0.0
 11
-7.515764087954909
 21
109.1337796841362
 31
0.0
 11
-7.471684730943567
 21
109.1692675965078
 31
0.0
 11
-7.426582644178403
 21
109.2034484924725
 31
0.0
 11
-7.380308275225159
 21
109.2364344097543
 31
0.0
 11
-7.333097716667968
 21
109.2680570884322
 31
0.0
 11
-7.332263342347486
 21
109.2685983142471
 31
0.0
 11
-7.331428695645429
 21
109.2691391164286
 31
0.0
 11
-7.330594824466766
 21
109.2696788173686
 31
0.0
 11
-7.329760679330578
 21
109.2702180974379
 31
0.0
 11
-7.301329078973978
 21
109.2882461247177
 31
0.0
 11
-7.272593029107996
 21
109.3057866557881
 31
0.0
 11
-7.244916929732846
 21
109.3220551469175
 31
0.0
 11
-7.216981705451427
 21
109.337873934001
 31
0.0
 11
-7.190232887519585
 21
109.352470999568
 31
0.0
 11
-7.163264762969808
 21
109.3666586053167
 31
0.0
 11
-7.13761435289058
 21
109.379672970618
 31
0.0
 11
-7.111780256272086
 21
109.392319342977
 31
0.0
 11
-7.073507296950074
 21
109.4102272678331
 31
0.0
 11
-7.034868767397635
 21
109.4273336777858
 31
0.0
 11
-6.995791395063736
 21
109.4436717027234
 31
0.0
 11
-6.956383942429945
 21
109.459196663926
 31
0.0
 11
-6.916555571699579
 21
109.4739444931669
 31
0.0
 11
-6.87643242770196
 21
109.4878687015206
 31
0.0
 11
-6.848906052922902
 21
109.4968921399021
 31
0.0
 11
-6.821256701828444
 21
109.5055305436823
 31
0.0
 11
-6.791710130433465
 21
109.5142980537883
 31
0.0
 11
-6.762037209816684
 21
109.5226284881983
 31
0.0
 11
-6.730509327342074
 21
109.5309665795382
 31
0.0
 11
-6.698855654382584
 21
109.5388140014751
 31
0.0
 11
-6.665385340590256
 21
109.5465490226431
 31
0.0
 11
-6.631793738242095
 21
109.5537385499167
 31
0.0
 11
-6.60335666746282
 21
109.5593814004071
 31
0.0
 11
-6.574845271463278
 21
109.5646353111626
 31
0.0
 11
-6.544463970318688
 21
109.5697933682957
 31
0.0
 11
-6.514011182900262
 21
109.5745118786755
 31
0.0
 11
-6.481746012244366
 21
109.5790223106694
 31
0.0
 11
-6.44941599931839
 21
109.583041570892
 31
0.0
 11
-6.415327613592506
 21
109.5867414242947
 31
0.0
 11
-6.38118424748302
 21
109.5898977062476
 31
0.0
 11
-6.33487578715378
 21
109.5933061227753
 31
0.0
 11
-6.288504240967339
 21
109.5957196582446
 31
0.0
 11
-6.195391039338547
 21
109.5975677239827
 31
0.0
 11
-6.10228389518915
 21
109.595434880368
 31
0.0
  0
SPLINE
  5
33C
330
1F
100
AcDbEntity
  8
0
  6
Continuous
 62
     3
100
AcDbSpline
210
0.0
220
0.0
230
1.0
 70
     8
 71
     3
 72
    19
 73
    15
 74
    13
 42
0.000000001
 43
0.0000000001
 44
0.00000001
 40
0.0
 40
0.0
 40
0.0
 40
0.0
 40
0.7679185025683136
 40
1.584454505419129
 40
2.451386493424962
 40
3.292774268445083
 40
4.45299315390603
 40
5.624486743317627
 40
7.071770448946336
 40
8.514854979620939
 40
10.19510123804844
 40
11.87646351911358
 40
12.27132672916391
 40
12.66619013440641
 40
12.66619013440641
 40
12.66619013440641
 40
12.66619013440641
 10
-9.73084980365329
 20
65.1855836427245
 30
0.0
 10
-9.523218308139187
 20
65.35763786512939
 30
0.0
 10
-9.094809999574867
 20
65.71263918268463
 30
0.0
 10
-9.120123787100454
 20
66.59352526980653
 30
0.0
 10
-9.086265899039502
 20
67.4166200116479
 30
0.0
 10
-9.109156558439004
 20
68.37827016795694
 30
0.0
 10
-9.187352690810496
 20
69.43162825389622
 30
0.0
 10
-9.332653534913485
 20
70.68363740264702
 30
0.0
 10
-9.514752476800146
 20
72.02516822266506
 30
0.0
 10
-9.7500604619288
 20
73.53058182622928
 30
0.0
 10
-10.02728710957817
 20
75.10804397918437
 30
0.0
 10
-10.26434092346191
 20
76.33760792673091
 30
0.0
 10
-10.42633380165524
 20
77.14521825210923
 30
0.0
 10
-10.47910083828367
 20
77.40311796056362
 30
0.0
 10
-10.5054843574727
 20
77.5320678478141
 30
0.0
 11
-9.73084980365329
 21
65.1855836427245
 31
0.0
 11
-9.212428801377085
 21
65.75209797555357
 31
0.0
 11
-9.11020278187894
 21
66.56220962401949
 31
0.0
 11
-9.095333724850574
 21
67.42901409017564
 31
0.0
 11
-9.112505931789768
 21
68.270226609783
 31
0.0
 11
-9.195045196954975
 21
69.42750580326096
 31
0.0
 11
-9.325393981055216
 21
70.59172503703596
 31
0.0
 11
-9.519760959344291
 21
72.02589783071154
 31
0.0
 11
-9.741995497913988
 21
73.45176766082425
 31
0.0
 11
-10.03176317927149
 21
75.10683931477737
 31
0.0
 11
-10.3488616876662
 21
76.7580290846837
 31
0.0
 11
-10.42658287328759
 21
77.1451677833786
 31
0.0
 11
-10.5054843574727
 21
77.5320678478141
 31
0.0
  0
SPLINE
  5
33D
330
1F
100
AcDbEntity
  8
0
  6
Continuous
 62
     3
100
AcDbSpline
210
0.0
220
0.0
230
1.0
 70
     8
 71
     3
 72
    27
 73
    23
 74
    21
 42
0.000000001
 43
0.0000000001
 44
0.00000001
 40
0.0
 40
0.0
 40
0.0
 40
0.0
 40
0.0912026543630148
 40
0.1823944559760264
 40
0.2302044841637291
 40
0.278015969564766
 40
0.3246835372651474
 40
0.3713530281167637
 40
0.4771827779553968
 40
0.5831200949867786
 40
0.6968884856484284
 40
0.8106350262250238
 40
0.9497075884982746
 40
1.088796726458186
 40
1.243077901556242
 40
1.397349687723326
 40
1.487858493259955
 40
1.578367564976677
 40
1.673266064467368
 40
1.76816493189296
 40
1.987470881397045
 40
2.206777715067037
 40
2.206777715067037
 40
2.206777715067037
 40
2.206777715067037
 10
8.99601667761962
 20
63.8039833223804
 30
0.0
 10
8.975211523268394
 20
63.82619466067749
 30
0.0
 10
8.933603700691563
 20
63.87061470326574
 30
0.0
 10
8.88972426912856
 20
63.93390166475071
 30
0.0
 10
8.858327473644213
 20
63.98768967371727
 30
0.0
 10
8.836834812230668
 20
64.03000456980416
 30
0.0
 10
8.81780406976672
 20
64.0730553603793
 30
0.0
 10
8.794056504991742
 20
64.1350772842819
 30
0.0
 10
8.769548097763591
 20
64.21782786722534
 30
0.0
 10
8.748066858539715
 20
64.32430051184882
 30
0.0
 10
8.734151991919461
 20
64.43466517221829
 30
0.0
 10
8.72604968046228
 20
64.55664025449207
 30
0.0
 10
8.723439041172178
 20
64.68729191624661
 30
0.0
 10
8.72566465438963
 20
64.83143858432283
 30
0.0
 10
8.731085687744304
 20
64.98056028228984
 30
0.0
 10
8.737436557941294
 20
65.11342972275745
 30
0.0
 10
8.742848054743963
 20
65.22506182202676
 30
0.0
 10
8.747138551884568
 20
65.31693378052111
 30
0.0
 10
8.751126555802056
 20
65.4102851498374
 30
0.0
 10
8.756043323877595
 20
65.54656232583372
 30
0.0
 10
8.760462282424829
 20
65.72437734436843
 30
0.0
 10
8.758761023046825
 20
65.87058254801691
 30
0.0
 10
8.7579103851169
 20
65.9436852971691
 30
0.0
 11
8.99601667761962
 21
63.8039833223804
 31
0.0
 11
8.935311791720329
 21
63.87204830648295
 31
0.0
 11
8.882804048038025
 21
63.94660621943515
 31
0.0
 11
8.858734469912012
 21
63.98791547106739
 31
0.0
 11
8.83705450275002
 21
64.03052905068013
 31
0.0
 11
8.81816816801197
 21
64.07320419822747
 31
0.0
 11
8.80145895630742
 21
64.11677992076162
 31
0.0
 11
8.771083905027119
 21
64.21815690070528
 31
0.0
 11
8.749822712736707
 21
64.32193877149734
 31
0.0
 11
8.735267698953184
 21
64.43477226896567
 31
0.0
 11
8.727399630930705
 21
64.54824635799554
 31
0.0
 11
8.724260190067143
 21
64.6872834801636
 31
0.0
 11
8.726045674981926
 21
64.82636115707606
 31
0.0
 11
8.731379283897152
 21
64.9805501108686
 31
0.0
 11
8.738473223495788
 21
65.13465870863922
 31
0.0
 11
8.742821368076862
 21
65.22506300875173
 31
0.0
 11
8.747011863396965
 21
65.31547501997147
 31
0.0
 11
8.751021748101087
 21
65.41028876362591
 31
0.0
 11
8.754441086546223
 21
65.50512600902368
 31
0.0
 11
8.759128741234115
 21
65.72438185273109
 31
0.0
 11
8.7579103851169
 21
65.9436852971691
 31
0.0
  0
SPLINE
  5
33E
330
1F
100
AcDbEntity
  8
0
  6
Continuous
 62
     3
100
AcDbSpline
210
0.0
220
0.0
230
1.0
 70
     8
 71
     3
 72
     9
 73
     5
 74
     3
 42
0.000000001
 43
0.0000000001
 44
0.00000001
 40
0.0
 40
0.0
 40
0.0
 40
0.0
 40
1.459465824941878
 40
2.918934971785906
 40
2.918934971785906
 40
2.918934971785906
 40
2.918934971785906
 10
9.30000000000001
 20
102.555620977019
 30
0.0
 10
9.3814129254797
 20
102.0759793001447
 30
0.0
 10
9.544238981438273
 20
101.1166948581574
 30
0.0
 10
9.726135207953316
 20
100.1608430244195
 30
0.0
 10
9.81708343455013
 20
99.6829165654498
 30
0.0
 11
9.30000000000001
 21
102.555620977019
 31
0.0
 11
9.54900631807948
 21
101.1175540982114
 31
0.0
 11
9.81708343455013
 21
99.6829165654498
 31
0.0
  0
SPLINE
  5
33F
330
1F
100
AcDbEntity
  8
0
  6
Continuous
 62
     3
100
AcDbSpline
210
0.0
220
0.0
230
1.0
 70
     8
 71
     3
 72
    15
 73
    11
 74
     9
 42
0.000000001
 43
0.0000000001
 44
0.00000001
 40
0.0
 40
0.0
 40
0.0
 40
0.0
 40
0.8132171598540386
 40
1.6264043834917
 40
2.056248995673736
 40
2.486083448175288
 40
2.871475371466845
 40
3.256896314542464
 40
4.888535815345081
 40
6.520172963449514
 40
6.520172963449514
 40
6.520172963449514
 40
6.520172963449514
 10
-12.0495200402543
 20
90.7286591639665
 30
0.0
 10
-12.11075423201127
 20
90.46450948722956
 30
0.0
 10
-12.23322034698315
 20
89.93621985451826
 30
0.0
 10
-12.33558425691961
 20
89.2577781492684
 30
0.0
 10
-12.3953433288071
 20
88.70333241996721
 30
0.0
 10
-12.42611076664682
 20
88.28937110155708
 30
0.0
 10
-12.44371802135185
 20
87.88946192861144
 30
0.0
 10
-12.45499328113366
 20
87.08882129369113
 30
0.0
 10
-12.3902267117292
 20
85.86899059576527
 30
0.0
 10
-12.16308888102088
 20
84.80389049907296
 30
0.0
 10
-12.0495200402527
 20
84.2713408360319
 30
0.0
 11
-12.0495200402543
 21
90.7286591639665
 31
0.0
 11
-12.22284706123144
 21
89.93412792219772
 31
0.0
 11
-12.34718844881807
 21
89.13050320792016
 31
0.0
 11
-12.39297712753948
 21
88.70310434522351
 31
0.0
 11
-12.4249321187586
 21
88.27445934598258
 31
0.0
 11
-12.44179619639806
 21
87.88943657051672
 31
0.0
 11
-12.44749159380388
 21
87.50405771017927
 31
0.0
 11
-12.34792344030958
 21
85.87545903443036
 31
0.0
 11
-12.0495200402527
 21
84.2713408360319
 31
0.0
  0
SPLINE
  5
340
330
1F
100
AcDbEntity
  8
0
  6
Continuous
 62
     3
100
AcDbSpline
210
0.0
220
0.0
230
1.0
 70
     8
 71
     3
 72
    11
 73
     7
 74
     5
 42
0.000000001
 43
0.0000000001
 44
0.00000001
 40
0.0
 40
0.0
 40
0.0
 40
0.0
 40
3.62112722118925
 40
7.2422457646471
 40
10.25207731054529
 40
13.26185449378366
 40
13.26185449378366
 40
13.26185449378366
 40
13.26185449378366
 10
-12.0495200402543
 20
90.7286591639665
 30
0.0
 10
-11.76257346681944
 20
91.90115916329867
 30
0.0
 10
-11.18868102232424
 20
94.24615635565748
 30
0.0
 10
-10.46973269495182
 20
97.58732130443195
 30
0.0
 10
-9.857026182013115
 20
100.7426692739474
 30
0.0
 10
-9.56141321011595
 20
102.7275474292531
 30
0.0
 10
-9.41360806634364
 20
103.719977545419
 30
0.0
 11
-12.0495200402543
 21
90.7286591639665
 31
0.0
 11
-11.20518407421198
 21
94.24997413532952
 31
0.0
 11
-10.43986304207571
 21
97.78929373459493
 31
0.0
 11
-9.878762378325508
 21
100.7463618741803
 31
0.0
 11
-9.41360806634364
 21
103.719977545419
 31
0.0
  0
SPLINE
  5
341
330
1F
100
AcDbEntity
  8
0
  6
Continuous
 62
     3
100
AcDbSpline
210
0.0
220
0.0
230
1.0
 70
     8
 71
     3
 72
    11
 73
     7
 74
     5
 42
0.000000001
 43
0.0000000001
 44
0.00000001
 40
0.0
 40
0.0
 40
0.0
 40
0.0
 40
1.863350356675865
 40
3.726686236696784
 40
5.127946352473848
 40
6.529117128684851
 40
6.529117128684851
 40
6.529117128684851
 40
6.529117128684851
 10
9.29999999999998
 20
72.4443790229808
 30
0.0
 10
9.21593807586769
 20
71.828926275391
 30
0.0
 10
9.047814895759078
 20
70.5980255598516
 30
0.0
 10
8.875290149138653
 20
68.89727451544339
 30
0.0
 10
8.76230800680012
 20
67.34529366445184
 30
0.0
 10
8.759376222920512
 20
66.41087815683738
 30
0.0
 10
8.7579103851169
 20
65.9436852971691
 30
0.0
 11
9.29999999999998
 21
72.4443790229808
 31
0.0
 11
9.058499931246631
 21
70.59674478803392
 31
0.0
 11
8.869772035538318
 21
68.74299119450477
 31
0.0
 11
8.778539228547501
 21
67.34470421070858
 31
0.0
 11
8.7579103851169
 21
65.9436852971691
 31
0.0
  0
SPLINE
  5
342
330
1F
100
AcDbEntity
  8
0
  6
Continuous
 62
     3
100
AcDbSpline
210
0.0
220
0.0
230
1.0
 70
     8
 71
     3
 72
    11
 73
     7
 74
     5
 42
0.000000001
 43
0.0000000001
 44
0.00000001
 40
0.0
 40
0.0
 40
0.0
 40
0.0
 40
0.7716402484560787
 40
1.543280496707272
 40
2.300606114825391
 40
3.057931732710425
 40
3.057931732710425
 40
3.057931732710425
 40
3.057931732710425
 10
8.11587221116741
 20
108.219594264207
 30
0.0
 10
8.186718208849996
 20
107.9723300518691
 30
0.0
 10
8.328410218628406
 20
107.4778016313968
 30
0.0
 10
8.540212083814112
 20
106.7407618253762
 30
0.0
 10
8.751087707799142
 20
106.0084206091077
 30
0.0
 10
8.891189932522613
 20
105.5233649600969
 30
0.0
 10
8.96124105207304
 20
105.280837137707
 30
0.0
 11
8.11587221116741
 21
108.219594264207
 31
0.0
 11
8.328507159962916
 21
107.4778294419135
 31
0.0
 11
8.541596634249345
 21
106.7361950652297
 31
0.0
 11
8.751187368224068
 21
106.0084493568261
 31
0.0
 11
8.96124105207304
 21
105.280837137707
 31
0.0
  0
SPLINE
  5
343
330
1F
100
AcDbEntity
  8
0
  6
Continuous
 62
     3
100
AcDbSpline
210
0.0
220
0.0
230
1.0
 70
     8
 71
     3
 72
    11
 73
     7
 74
     5
 42
0.000000001
 43
0.0000000001
 44
0.00000001
 40
0.0
 40
0.0
 40
0.0
 40
0.0
 40
1.153257589295713
 40
2.306515180301964
 40
3.494768622229426
 40
4.68302206542115
 40
4.68302206542115
 40
4.68302206542115
 40
4.68302206542115
 10
-9.41360806634364
 20
103.719977545419
 30
0.0
 10
-9.306440903605111
 20
104.0891568341698
 30
0.0
 10
-9.092106592355442
 20
104.8275154163907
 30
0.0
 10
-8.768827517514955
 20
105.9466832120429
 30
0.0
 10
-8.44326544646815
 20
107.0773332806476
 30
0.0
 10
-8.225003284826592
 20
107.8388406015046
 30
0.0
 10
-8.1158722111673
 20
108.219594264207
 30
0.0
 11
-9.41360806634364
 21
103.719977545419
 31
0.0
 11
-9.092349855954147
 21
104.8275858830268
 31
0.0
 11
-8.772218312257053
 21
105.9355203873941
 31
0.0
 11
-8.443498205954917
 21
107.0774001244894
 31
0.0
 11
-8.1158722111673
 21
108.219594264207
 31
0.0
  0
SPLINE
  5
344
330
1F
100
AcDbEntity
  8
0
  6
Continuous
 62
     3
100
AcDbSpline
210
0.0
220
0.0
230
1.0
 70
     8
 71
     3
 72
     9
 73
     5
 74
     3
 42
0.000000001
 43
0.0000000001
 44
0.00000001
 40
0.0
 40
0.0
 40
0.0
 40
0.0
 40
1.373152896469931
 40
2.746315795222635
 40
2.746315795222635
 40
2.746315795222635
 40
2.746315795222635
 10
8.96124105207304
 20
105.280837137707
 30
0.0
 10
9.011185292149033
 20
104.8258262023023
 30
0.0
 10
9.111074155960722
 20
103.9158010194866
 30
0.0
 10
9.237024559135486
 20
103.0090154245141
 30
0.0
 10
9.30000000000001
 20
102.555620977019
 30
0.0
 11
8.96124105207304
 21
105.280837137707
 31
0.0
 11
9.117589119616397
 21
103.9166142236926
 31
0.0
 11
9.30000000000001
 21
102.555620977019
 31
0.0
  0
SPLINE
  5
345
330
1F
100
AcDbEntity
  8
0
  6
Continuous
 62
     3
100
AcDbSpline
210
0.0
220
0.0
230
1.0
 70
     8
 71
     3
 72
    11
 73
     7
 74
     5
 42
0.000000001
 43
0.0000000001
 44
0.00000001
 40
0.0
 40
0.0
 40
0.0
 40
0.0
 40
3.052024886080602
 40
6.104054027431479
 40
9.156083168782335
 40
12.20810805486291
 40
12.20810805486291
 40
12.20810805486291
 40
12.20810805486291
 10
6.10228389518915
 20
109.595434880368
 30
0.0
 10
5.085595970188663
 20
109.5576251357363
 30
0.0
 10
3.052218702212845
 20
109.482005608748
 30
0.0
 10
-0.0000000000000177
 20
109.4558266662124
 30
0.0
 10
-3.052218702212867
 20
109.482005608748
 30
0.0
 10
-5.085595970188671
 20
109.5576251357363
 30
0.0
 10
-6.10228389518915
 20
109.595434880368
 30
0.0
 11
6.10228389518915
 21
109.595434880368
 31
0.0
 11
3.051861438619872
 21
109.4965473568636
 31
0.0
 11
-0.0000000000000242
 21
109.4645529744465
 31
0.0
 11
-3.051861438619897
 21
109.4965473568636
 31
0.0
 11
-6.10228389518915
 21
109.595434880368
 31
0.0
  0
SPLINE
  5
346
330
1F
100
AcDbEntity
  8
0
  6
Continuous
 62
     3
100
AcDbSpline
210
0.0
220
0.0
230
1.0
 70
     8
 71
     3
 72
    11
 73
     7
 74
     5
 42
0.000000001
 43
0.0000000001
 44
0.00000001
 40
0.0
 40
0.0
 40
0.0
 40
0.0
 40
2.603798551159842
 40
5.208375046152361
 40
8.184169954746313
 40
11.1602533616798
 40
11.1602533616798
 40
11.1602533616798
 40
11.1602533616798
 10
-11.9713633745161
 20
113.5
 30
0.0
 10
-11.15047481265777
 20
113.206631496039
 30
0.0
 10
-9.508452425707246
 20
112.6198068517445
 30
0.0
 10
-6.761419246053612
 20
112.4279285210976
 30
0.0
 10
-3.905492155944557
 20
112.6733420800834
 30
0.0
 10
-1.995110467979488
 20
113.2244384509599
 30
0.0
 10
-1.03987332589708
 20
113.5
 30
0.0
 11
-11.9713633745161
 21
113.5
 31
0.0
 11
-9.48216081040042
 21
112.7360382878419
 31
0.0
 11
-6.888301782571618
 21
112.4999999999998
 31
0.0
 11
-3.924637595698319
 21
112.7684211919395
 31
0.0
 11
-1.03987332589708
 21
113.5
 31
0.0
  0
SPLINE
  5
347
330
1F
100
AcDbEntity
  8
0
  6
Continuous
 62
     3
100
AcDbSpline
210
0.0
220
0.0
230
1.0
 70
     8
 71
     3
 72
    11
 73
     7
 74
     5
 42
0.000000001
 43
0.0000000001
 44
0.00000001
 40
0.0
 40
0.0
 40
0.0
 40
0.0
 40
2.976083406933518
 40
5.951878315527519
 40
8.556454810520014
 40
11.16025336167977
 40
11.16025336167977
 40
11.16025336167977
 40
11.16025336167977
 10
1.03987332589702
 20
113.5
 30
0.0
 10
1.995110467979438
 20
113.2244384509599
 30
0.0
 10
3.905492155944529
 20
112.6733420800834
 30
0.0
 10
6.761419246053604
 20
112.4279285210976
 30
0.0
 10
9.508452425707226
 20
112.6198068517445
 30
0.0
 10
11.1504748126577
 20
113.206631496039
 30
0.0
 10
11.971363374516
 20
113.5
 30
0.0
 11
1.03987332589702
 21
113.5
 31
0.0
 11
3.924637595698287
 21
112.7684211919395
 31
0.0
 11
6.888301782571634
 21
112.4999999999998
 31
0.0
 11
9.482160810400412
 21
112.7360382878419
 31
0.0
 11
11.971363374516
 21
113.5
 31
0.0
  0
SPLINE
  5
348
330
1F
100
AcDbEntity
  8
0
  6
Continuous
 62
     3
100
AcDbSpline
210
0.0
220
0.0
230
1.0
 70
     8
 71
     3
 72
    11
 73
     7
 74
     5
 42
0.000000001
 43
0.0000000001
 44
0.00000001
 40
0.0
 40
0.0
 40
0.0
 40
0.0
 40
1.677299551283037
 40
3.355627259382783
 40
4.263871385776675
 40
5.162755884618784
 40
5.162755884618784
 40
5.162755884618784
 40
5.162755884618784
 10
13.4419663351496
 20
113.5
 30
0.0
 10
13.95440604207215
 20
113.2724797861098
 30
0.0
 10
14.97959957240103
 20
112.8172998943488
 30
0.0
 10
16.32973315174343
 20
112.4095836842818
 30
0.0
 10
17.61343596994638
 20
112.6013662103105
 30
0.0
 10
17.85151486579222
 20
113.2014914734852
 30
0.0
 10
17.9699377702341
 20
113.5
 30
0.0
 11
13.4419663351496
 21
113.5
 31
0.0
 11
14.98861699522613
 21
112.8509965428156
 31
0.0
 11
16.62983158520313
 21
112.5000000000001
 31
0.0
 11
17.50890038884899
 21
112.7283537805529
 31
0.0
 11
17.9699377702341
 21
113.5
 31
0.0
  0
SPLINE
  5
349
330
1F
100
AcDbEntity
  8
0
  6
Continuous
 62
     3
100
AcDbSpline
210
0.0
220
0.0
230
1.0
 70
     8
 71
     3
 72
    11
 73
     7
 74
     5
 42
0.000000001
 43
0.0000000001
 44
0.00000001
 40
0.0
 40
0.0
 40
0.0
 40
0.0
 40
0.8988844988421212
 40
1.807128625235971
 40
3.485456333335808
 40
5.162755884618638
 40
5.162755884618638
 40
5.162755884618638
 40
5.162755884618638
 10
-17.9699377702341
 20
113.5
 30
0.0
 10
-17.85151486579223
 20
113.2014914734851
 30
0.0
 10
-17.61343596994641
 20
112.6013662103105
 30
0.0
 10
-16.32973315174334
 20
112.409583684282
 30
0.0
 10
-14.97959957240122
 20
112.8172998943495
 30
0.0
 10
-13.95440604207218
 20
113.27247978611
 30
0.0
 10
-13.4419663351496
 20
113.5
 30
0.0
 11
-17.9699377702341
 21
113.5
 31
0.0
 11
-17.50890038884899
 21
112.7283537805529
 31
0.0
 11
-16.62983158520314
 21
112.5000000000003
 31
0.0
 11
-14.98861699522613
 21
112.8509965428162
 31
0.0
 11
-13.4419663351496
 21
113.5
 31
0.0
  0
SPLINE
  5
34A
330
1F
100
AcDbEntity
  8
0
  6
Continuous
 62
     3
100
AcDbSpline
210
0.0
220
0.0
230
1.0
 70
     8
 71
     3
 72
    11
 73
     7
 74
     5
 42
0.000000001
 43
0.0000000001
 44
0.00000001
 40
0.0
 40
0.0
 40
0.0
 40
0.0
 40
2.603798551159784
 40
5.208375046152208
 40
8.1841699547462
 40
11.16025336167967
 40
11.16025336167967
 40
11.16025336167967
 40
11.16025336167967
 10
-26.0
 20
75.528636625484
 30
0.0
 10
-25.706631496039
 20
76.34952518734231
 30
0.0
 10
-25.11980685174454
 20
77.99154757429281
 30
0.0
 10
-24.92792852109789
 20
80.73858075394641
 30
0.0
 10
-25.17334208008383
 20
83.59450784405543
 30
0.0
 10
-25.72443845096003
 20
85.50488953202056
 30
0.0
 10
-26.0
 20
86.460126674103
 30
0.0
 11
-26.0
 21
75.528636625484
 31
0.0
 11
-25.23603828784191
 21
78.01783918959963
 31
0.0
 11
-25.00000000000005
 21
80.61169821742835
 31
0.0
 11
-25.26842119193981
 21
83.57536240430169
 31
0.0
 11
-26.0
 21
86.460126674103
 31
0.0
  0
SPLINE
  5
34B
330
1F
100
AcDbEntity
  8
0
  6
Continuous
 62
     3
100
AcDbSpline
210
0.0
220
0.0
230
1.0
 70
     8
 71
     3
 72
    11
 73
     7
 74
     5
 42
0.000000001
 43
0.0000000001
 44
0.00000001
 40
0.0
 40
0.0
 40
0.0
 40
0.0
 40
2.976083406933455
 40
5.951878315527476
 40
8.556454810519956
 40
11.16025336167977
 40
11.16025336167977
 40
11.16025336167977
 40
11.16025336167977
 10
-26.0
 20
88.539873325897
 30
0.0
 10
-25.72443845096004
 20
89.49511046797946
 30
0.0
 10
-25.17334208008383
 20
91.40549215594459
 30
0.0
 10
-24.92792852109788
 20
94.26141924605358
 30
0.0
 10
-25.11980685174453
 20
97.0084524257073
 30
0.0
 10
-25.706631496039
 20
98.65047481265776
 30
0.0
 10
-26.0
 20
99.4713633745161
 30
0.0
 11
-26.0
 21
88.539873325897
 31
0.0
 11
-25.26842119193982
 21
91.4246375956983
 31
0.0
 11
-25.00000000000005
 21
94.38830178257166
 31
0.0
 11
-25.23603828784191
 21
96.98216081040044
 31
0.0
 11
-26.0
 21
99.4713633745161
 31
0.0
  0
SPLINE
  5
34C
330
1F
100
AcDbEntity
  8
0
  6
Continuous
 62
     3
100
AcDbSpline
210
0.0
220
0.0
230
1.0
 70
     8
 71
     3
 72
    11
 73
     7
 74
     5
 42
0.000000001
 43
0.0000000001
 44
0.00000001
 40
0.0
 40
0.0
 40
0.0
 40
0.0
 40
1.67729955128277
 40
3.355627259382394
 40
4.263871385776199
 40
5.162755884618394
 40
5.162755884618394
 40
5.162755884618394
 40
5.162755884618394
 10
-26.0
 20
100.94196633515
 30
0.0
 10
-25.77247978610991
 20
101.4544060420725
 30
0.0
 10
-25.31729989434918
 20
102.4795995724013
 30
0.0
 10
-24.90958368428158
 20
103.8297331517434
 30
0.0
 10
-25.10136621031045
 20
105.1134359699464
 30
0.0
 10
-25.70149147348513
 20
105.3515148657921
 30
0.0
 10
-26.0
 20
105.469937770234
 30
0.0
 11
-26.0
 21
100.94196633515
 31
0.0
 11
-25.35099654281584
 21
102.4886169952263
 31
0.0
 11
-25.0
 21
104.1298315852031
 31
0.0
 11
-25.22835378055282
 21
105.0089003888489
 31
0.0
 11
-26.0
 21
105.469937770234
 31
0.0
  0
SPLINE
  5
34D
330
1F
100
AcDbEntity
  8
0
  6
Continuous
 62
     3
100
AcDbSpline
210
0.0
220
0.0
230
1.0
 70
     8
 71
     3
 72
    11
 73
     7
 74
     5
 42
0.000000001
 43
0.0000000001
 44
0.00000001
 40
0.0
 40
0.0
 40
0.0
 40
0.0
 40
0.8988844988422168
 40
1.807128625236085
 40
3.485456333335836
 40
5.162755884618718
 40
5.162755884618718
 40
5.162755884618718
 40
5.162755884618718
 10
-26.0
 20
69.5300622297659
 30
0.0
 10
-25.70149147348514
 20
69.6484851342078
 30
0.0
 10
-25.10136621031044
 20
69.88656403005365
 30
0.0
 10
-24.90958368428166
 20
71.17026684825665
 30
0.0
 10
-25.31729989434912
 20
72.52040042759884
 30
0.0
 10
-25.77247978610989
 20
73.54559395792778
 30
0.0
 10
-26.0
 20
74.0580336648503
 30
0.0
 11
-26.0
 21
69.5300622297659
 31
0.0
 11
-25.22835378055283
 21
69.99109961115107
 31
0.0
 11
-25.00000000000004
 21
70.87016841479691
 31
0.0
 11
-25.35099654281581
 21
72.51138300477385
 31
0.0
 11
-26.0
 21
74.0580336648503
 31
0.0
  0
SPLINE
  5
34E
330
1F
100
AcDbEntity
  8
0
  6
Continuous
 62
     3
100
AcDbSpline
210
0.0
220
0.0
230
1.0
 70
     8
 71
     3
 72
    25
 73
    21
 74
    19
 42
0.000000001
 43
0.0000000001
 44
0.00000001
 40
0.0
 40
0.0
 40
0.0
 40
0.0
 40
0.3467275973756117
 40
0.6934552592087784
 40
1.709036723148115
 40
2.724691234332666
 40
3.827107573081085
 40
4.929513940801533
 40
6.127610914402178
 40
7.325701373770757
 40
7.809833944414103
 40
8.293961501977098
 40
8.791669374085938
 40
9.289377822064097
 40
9.487353283374913
 40
9.685328501685461
 40
9.886331952688098
 40
10.08733542383042
 40
10.22382431206257
 40
10.36031319929563
 40
10.36031319929563
 40
10.36031319929563
 40
10.36031319929563
 10
9.30000000000004
 20
105.898097727754
 30
0.0
 10
9.402996496658107
 20
105.9505356466321
 30
0.0
 10
9.608989502527946
 20
106.0554115070205
 30
0.0
 10
10.11348658075245
 20
106.3200404893207
 30
0.0
 10
10.80904824524496
 20
106.7003575988112
 30
0.0
 10
11.71319064832649
 20
107.2236096135477
 30
0.0
 10
12.6303399206174
 20
107.7816472541927
 30
0.0
 10
13.58717141140758
 20
108.3909742060218
 30
0.0
 10
14.55903957497906
 20
109.0356767905785
 30
0.0
 10
15.34987623652217
 20
109.5801658741095
 30
0.0
 10
15.94029247901283
 20
109.995936535095
 30
0.0
 10
16.3381849871726
 20
110.2796072811206
 30
0.0
 10
16.73814668508891
 20
110.5681567675025
 30
0.0
 10
17.05948675500979
 20
110.8026452567442
 30
0.0
 10
17.29948453228225
 20
110.9791033043002
 30
0.0
 10
17.45956274166004
 20
111.0972977966407
 30
0.0
 10
17.62021723931355
 20
111.2164103673416
 30
0.0
 10
17.76419455352824
 20
111.3236032740748
 30
0.0
 10
17.89077906203591
 20
111.4181464201205
 30
0.0
 10
17.9635930236642
 20
111.4727154695726
 30
0.0
 10
18.0
 20
111.5
 30
0.0
 11
9.30000000000004
 21
105.898097727754
 31
0.0
 11
9.608667163693191
 21
106.0560363526136
 31
0.0
 11
9.915807626506226
 21
106.2169239162279
 31
0.0
 11
10.80700780299168
 21
106.7039228527079
 31
0.0
 11
11.6863361001356
 21
107.212190343003
 31
0.0
 11
12.62835444254411
 21
107.7848361520997
 31
0.0
 11
13.55847360571383
 21
108.3765946660024
 31
0.0
 11
14.55711084475735
 21
109.0385312349251
 31
0.0
 11
15.54417572646361
 21
109.7175921065981
 31
0.0
 11
15.94002274920284
 21
109.9963204341204
 31
0.0
 11
16.33423836133231
 21
110.2773427522588
 31
0.0
 11
16.7378823718061
 21
110.5685207719796
 31
0.0
 11
17.13994194010846
 21
110.8618836935355
 31
0.0
 11
17.29944520682751
 21
110.9791568426586
 31
0.0
 11
17.45871211155003
 21
111.0967503820748
 31
0.0
 11
17.62017744072571
 21
111.2164639337116
 31
0.0
 11
17.78140752413255
 21
111.3364941537012
 31
0.0
 11
17.89075675573837
 21
111.4181762291209
 31
0.0
 11
18.0
 21
111.5
 31
0.0
  0
SPLINE
  5
34F
330
1F
100
AcDbEntity
  8
0
  6
Continuous
 62
     3
100
AcDbSpline
210
0.0
220
0.0
230
1.0
 70
     8
 71
     3
 72
    11
 73
     7
 74
     5
 42
0.000000001
 43
0.0000000001
 44
0.00000001
 40
0.0
 40
0.0
 40
0.0
 40
0.0
 40
0.1761816096635855
 40
0.3523632194919087
 40
0.5282361257574719
 40
0.7041090322277388
 40
0.7041090322277388
 40
0.7041090322277388
 40
0.7041090322277388
 10
8.96124105207304
 20
105.280837137707
 30
0.0
 10
8.989368440620142
 20
105.3323903704025
 30
0.0
 10
9.045623230906381
 20
105.4354968286513
 30
0.0
 10
9.130246484216816
 20
105.589907467587
 30
0.0
 10
9.215009403373411
 20
105.7441240639225
 30
0.0
 10
9.271669796735486
 20
105.8467731755379
 30
0.0
 10
9.30000000000004
 20
105.898097727754
 30
0.0
 11
8.96124105207304
 21
105.280837137707
 31
0.0
 11
9.045671642452765
 21
105.4354703650366
 31
0.0
 11
9.130327514192318
 21
105.5899803745082
 31
0.0
 11
9.215055600525517
 21
105.7440986101252
 31
0.0
 11
9.30000000000004
 21
105.898097727754
 31
0.0
  0
SPLINE
  5
350
330
1F
100
AcDbEntity
  8
0
  6
Continuous
 62
     3
100
AcDbSpline
210
0.0
220
0.0
230
1.0
 70
     8
 71
     3
 72
    25
 73
    21
 74
    19
 42
0.000000001
 43
0.0000000001
 44
0.00000001
 40
0.0
 40
0.0
 40
0.0
 40
0.0
 40
0.0357042605079251
 40
0.0714085220950573
 40
0.5669706834213692
 40
1.062533682645807
 40
1.543264119880257
 40
2.023995655555961
 40
2.769668749993266
 40
3.515343342961091
 40
4.220055998989644
 40
4.924767624279178
 40
5.590771782372465
 40
6.256773978026536
 40
6.8863862472041
 40
7.516001283065172
 40
8.111626851681965
 40
8.707237622917992
 40
9.018537394760147
 40
9.32983712500991
 40
9.32983712500991
 40
9.32983712500991
 40
9.32983712500991
 10
-17.1820268475499
 20
108.86800145301
 30
0.0
 10
-17.17257300355667
 20
108.8607717474982
 30
0.0
 10
-17.15366530654857
 20
108.8463123476813
 30
0.0
 10
-17.00349144113972
 20
108.7315730147876
 30
0.0
 10
-16.73097691694213
 20
108.5244736445613
 30
0.0
 10
-16.33882782016372
 20
108.2296384601954
 30
0.0
 10
-15.94907492781403
 20
107.9398535752582
 30
0.0
 10
-15.49053497091317
 20
107.6028722606047
 30
0.0
 10
-14.95792814819932
 20
107.2175600910784
 30
0.0
 10
-14.36058521256459
 20
106.7944122475616
 30
0.0
 10
-13.770045144093
 20
106.38534987177
 30
0.0
 10
-13.19696064554422
 20
105.9977979537761
 30
0.0
 10
-12.63010779129653
 20
105.6241496737611
 30
0.0
 10
-12.07968078649134
 20
105.2711561144261
 30
0.0
 10
-11.53492755499662
 20
104.9318881379998
 30
0.0
 10
-11.00554929546411
 20
104.6124179561292
 30
0.0
 10
-10.48132129651161
 20
104.3064739220737
 30
0.0
 10
-10.04479128923871
 20
104.0608942788857
 30
0.0
 10
-9.688485205605458
 20
103.8660993405577
 30
0.0
 10
-9.505233777631368
 20
103.7686848040251
 30
0.0
 10
-9.41360806634364
 20
103.719977545419
 30
0.0
 11
-17.1820268475499
 21
108.86800145301
 31
0.0
 11
-17.15366373381314
 21
108.8463144088576
 31
0.0
 11
-17.12529303180753
 21
108.8246372925323
 31
0.0
 11
-16.73072003635859
 21
108.5248140019602
 31
0.0
 11
-16.33460746754982
 21
108.2270262931469
 31
0.0
 11
-15.94881011703948
 21
107.9402124899675
 31
0.0
 11
-15.56142148461624
 21
107.6555497828379
 31
0.0
 11
-14.95720790930254
 21
107.2185665807103
 31
0.0
 11
-14.34867145035684
 21
106.7876211359448
 31
0.0
 11
-13.7693019724701
 21
106.3864342279372
 31
0.0
 11
-13.18547950375067
 21
105.9917573992567
 31
0.0
 11
-12.62934747904567
 21
105.6253168056612
 31
0.0
 11
-12.06866305109313
 21
105.2658840649692
 31
0.0
 11
-11.53415808078775
 21
104.9331438602155
 31
0.0
 11
-10.99503949867962
 21
104.6079266252764
 31
0.0
 11
-10.48053494475887
 21
104.3078351599939
 31
0.0
 11
-9.961426252805696
 21
104.015810572375
 31
0.0
 11
-9.688197320959002
 21
103.866634504467
 31
0.0
 11
-9.41360806634364
 21
103.719977545419
 31
0.0
  0
HATCH
  5
351
330
1F
100
AcDbEntity
  8
1
  6
Continuous
 62
     4
100
AcDbHatch
 10
0.0
 20
0.0
 30
0.0
210
0.0
220
0.0
230
1.0
  2
_USER
 70
     0
 71
     1
 91
        1
 92
        1
 93
        1
 72
     2
 10
65.3097266238516
 20
90.34658257664
 40
0.6263590671359935
 50
0.0
 51
360.0
 73
     1
 97
        1
330
326
 75
     1
 76
     0
 52
90.00000000000001
 41
0.1
 77
     0
 78
     1
 53
90.00000000000001
 43
0.0
 44
0.0
 45
-0.1
 46
0.0
 79
     0
 98
        1
 10
0.0
 20
0.0
  0
HATCH
  5
352
330
1F
100
AcDbEntity
  8
1
  6
Continuous
 62
     4
100
AcDbHatch
 10
0.0
 20
0.0
 30
0.0
210
0.0
220
0.0
230
1.0
  2
_USER
 70
     0
 71
     1
 91
        1
 92
        1
 93
        4
 72
     1
 10
40.5
 20
89.4874999999999
 11
39.0
 21
89.4874999999999
 72
     1
 10
39.0
 20
89.4874999999999
 11
39.0
 21
85.5125
 72
     1
 10
39.0
 20
85.5125
 11
40.5
 21
85.5125
 72
     1
 10
40.5
 20
85.5125
 11
40.5
 21
89.4874999999999
 97
        4
330
21D
330
21C
330
21F
330
21E
 75
     1
 76
     0
 52
90.00000000000001
 41
0.1
 77
     0
 78
     1
 53
90.00000000000001
 43
0.0
 44
0.0
 45
-0.1
 46
0.0
 79
     0
 98
        1
 10
0.0
 20
0.0
  0
HATCH
  5
353
330
1F
100
AcDbEntity
  8
1
  6
Continuous
 62
     4
100
AcDbHatch
 10
0.0
 20
0.0
 30
0.0
210
0.0
220
0.0
230
1.0
  2
_USER
 70
     0
 71
     1
 91
        1
 92
        1
 93
        4
 72
     1
 10
42.75
 20
89.4874999999999
 11
41.25
 21
89.4874999999999
 72
     1
 10
41.25
 20
89.4874999999999
 11
41.25
 21
85.5125
 72
     1
 10
41.25
 20
85.5125
 11
42.75
 21
85.5125
 72
     1
 10
42.75
 20
85.5125
 11
42.75
 21
89.4874999999999
 97
        4
330
219
330
218
330
21B
330
21A
 75
     1
 76
     0
 52
90.00000000000001
 41
0.1
 77
     0
 78
     1
 53
90.00000000000001
 43
0.0
 44
0.0
 45
-0.1
 46
0.0
 79
     0
 98
        1
 10
0.0
 20
0.0
  0
HATCH
  5
354
330
1F
100
AcDbEntity
  8
1
  6
Continuous
 62
     4
100
AcDbHatch
 10
0.0
 20
0.0
 30
0.0
210
0.0
220
0.0
230
1.0
  2
_USER
 70
     0
 71
     1
 91
        1
 92
        1
 93
        4
 72
     1
 10
45.0
 20
89.4874999999999
 11
43.5
 21
89.4874999999999
 72
     1
 10
43.5
 20
89.4874999999999
 11
43.5
 21
85.5125
 72
     1
 10
43.5
 20
85.5125
 11
45.0
 21
85.5125
 72
     1
 10
45.0
 20
85.5125
 11
45.0
 21
89.4874999999999
 97
        4
330
215
330
214
330
217
330
216
 75
     1
 76
     0
 52
90.00000000000001
 41
0.1
 77
     0
 78
     1
 53
90.00000000000001
 43
0.0
 44
0.0
 45
-0.1
 46
0.0
 79
     0
 98
        1
 10
0.0
 20
0.0
  0
HATCH
  5
355
330
1F
100
AcDbEntity
  8
1
  6
Continuous
 62
     4
100
AcDbHatch
 10
0.0
 20
0.0
 30
0.0
210
0.0
220
0.0
230
1.0
  2
_USER
 70
     0
 71
     1
 91
        1
 92
        1
 93
       12
 72
     1
 10
47.9181179792436
 20
88.6388605183999
 11
49.4549114338356
 21
88.6388605183999
 72
     1
 10
49.4549114338356
 20
88.6388605183999
 11
49.4549114338356
 21
89.49279263744
 72
     1
 10
49.4549114338356
 20
89.49279263744
 11
50.3091279125556
 21
89.49279263744
 72
     1
 10
50.3091279125556
 20
89.49279263744
 11
50.3091279125556
 21
87.5
 72
     1
 10
50.3091279125556
 20
87.5
 11
49.4549114338356
 21
87.5
 72
     1
 10
49.4549114338356
 20
87.5
 11
49.4549114338356
 21
88.35393211904
 72
     1
 10
49.4549114338356
 20
88.35393211904
 11
47.9181179792436
 21
88.35393211904
 72
     1
 10
47.9181179792436
 20
88.35393211904
 11
47.9181179792436
 21
87.5
 72
     1
 10
47.9181179792436
 20
87.5
 11
47.0639015005236
 21
87.5
 72
     1
 10
47.0639015005236
 20
87.5
 11
47.0639015005236
 21
89.49279263744
 72
     1
 10
47.0639015005236
 20
89.49279263744
 11
47.9181179792436
 21
89.49279263744
 72
     1
 10
47.9181179792436
 20
89.49279263744
 11
47.9181179792436
 21
88.6388605183999
 97
       12
330
213
330
208
330
209
330
20A
330
20B
330
20C
330
20D
330
20E
330
20F
330
210
330
211
330
212
 75
     1
 76
     0
 52
90.00000000000001
 41
0.1
 77
     0
 78
     1
 53
90.00000000000001
 43
0.0
 44
0.0
 45
-0.1
 46
0.0
 79
     0
 98
        1
 10
0.0
 20
0.0
  0
HATCH
  5
356
330
1F
100
AcDbEntity
  8
1
  6
Continuous
 62
     4
100
AcDbHatch
 10
0.0
 20
0.0
 30
0.0
210
0.0
220
0.0
230
1.0
  2
_USER
 70
     0
 71
     1
 91
        2
 92
        1
 93
        8
 72
     1
 10
54.8114245298802
 20
87.5
 11
53.7767506623988
 21
87.5
 72
     1
 10
53.7767506623988
 20
87.5
 11
53.5034923843061
 21
87.955430463488
 72
     1
 10
53.5034923843061
 20
87.955430463488
 11
51.9795411214179
 21
87.955430463488
 72
     1
 10
51.9795411214179
 20
87.955430463488
 11
51.6835113201507
 21
87.5
 72
     1
 10
51.6835113201507
 20
87.5
 11
51.1118022150404
 21
87.5
 72
     1
 10
51.1118022150404
 20
87.5
 11
52.4071174293764
 21
89.49279263744
 72
     1
 10
52.4071174293764
 20
89.49279263744
 11
53.6157489474163
 21
89.49279263744
 72
     1
 10
53.6157489474163
 20
89.49279263744
 11
54.8114245298802
 21
87.5
 97
        8
330
207
330
200
330
201
330
202
330
203
330
204
330
205
330
206
 92
       16
 93
        3
 72
     1
 10
52.1277408558436
 20
88.183430054912
 11
52.7719957781199
 21
89.1745914737985
 72
     1
 10
52.7719957781199
 20
89.1745914737985
 11
53.3666926294518
 21
88.183430054912
 72
     1
 10
53.3666926294518
 20
88.183430054912
 11
52.1277408558436
 21
88.183430054912
 97
        3
330
1FD
330
1FF
330
1FE
 75
     1
 76
     0
 52
90.00000000000001
 41
0.1
 77
     0
 78
     1
 53
90.00000000000001
 43
0.0
 44
0.0
 45
-0.1
 46
0.0
 79
     0
 98
        1
 10
0.0
 20
0.0
  0
HATCH
  5
357
330
1F
100
AcDbEntity
  8
1
  6
Continuous
 62
     4
100
AcDbHatch
 10
0.0
 20
0.0
 30
0.0
210
0.0
220
0.0
230
1.0
  2
_USER
 70
     0
 71
     1
 91
        2
 92
        1
 93
        8
 72
     1
 10
63.113075163903
 20
87.5
 11
62.8398168858101
 21
87.955430463488
 72
     1
 10
62.8398168858101
 20
87.955430463488
 11
61.315865622922
 21
87.955430463488
 72
     1
 10
61.315865622922
 20
87.955430463488
 11
61.0198358216547
 21
87.5
 72
     1
 10
61.0198358216547
 20
87.5
 11
60.4481267165444
 21
87.5
 72
     1
 10
60.4481267165444
 20
87.5
 11
61.7434419308804
 21
89.49279263744
 72
     1
 10
61.7434419308804
 20
89.49279263744
 11
62.9520734489202
 21
89.49279263744
 72
     1
 10
62.9520734489202
 20
89.49279263744
 11
64.1477490313841
 21
87.5
 72
     1
 10
64.1477490313841
 20
87.5
 11
63.113075163903
 21
87.5
 97
        8
330
1EF
330
1F0
330
1F1
330
1EA
330
1EB
330
1EC
330
1ED
330
1EE
 92
       16
 93
        3
 72
     1
 10
62.7030171309558
 20
88.183430054912
 11
61.4640653573475
 21
88.183430054912
 72
     1
 10
61.4640653573475
 20
88.183430054912
 11
62.108320279624
 21
89.1745914737985
 72
     1
 10
62.108320279624
 20
89.1745914737985
 11
62.7030171309558
 21
88.183430054912
 97
        3
330
1E7
330
1E9
330
1E8
 75
     1
 76
     0
 52
90.00000000000001
 41
0.1
 77
     0
 78
     1
 53
90.00000000000001
 43
0.0
 44
0.0
 45
-0.1
 46
0.0
 79
     0
 98
        1
 10
0.0
 20
0.0
  0
HATCH
  5
358
330
1F
100
AcDbEntity
  8
1
  6
Continuous
 62
     4
100
AcDbHatch
 10
0.0
 20
0.0
 30
0.0
210
0.0
220
0.0
230
1.0
  2
_USER
 70
     0
 71
     1
 91
        1
 92
        1
 93
        4
 72
     1
 10
65.7368348632116
 20
87.5
 11
64.8826183844916
 21
87.5
 72
     1
 10
64.8826183844916
 20
87.5
 11
64.8826183844915
 21
89.0942909818879
 72
     1
 10
64.8826183844915
 20
89.0942909818879
 11
65.7368348632116
 21
89.0942909818879
 72
     1
 10
65.7368348632116
 20
89.0942909818879
 11
65.7368348632116
 21
87.5
 97
        4
330
1E6
330
1E3
330
1E4
330
1E5
 75
     1
 76
     0
 52
90.00000000000001
 41
0.1
 77
     0
 78
     1
 53
90.00000000000001
 43
0.0
 44
0.0
 45
-0.1
 46
0.0
 79
     0
 98
        1
 10
0.0
 20
0.0
  0
HATCH
  5
359
330
1F
100
AcDbEntity
  8
1
  6
Continuous
 62
     4
100
AcDbHatch
 10
0.0
 20
0.0
 30
0.0
210
0.0
220
0.0
230
1.0
  2
_USER
 70
     0
 71
     1
 91
        1
 92
        1
 93
       15
 72
     1
 10
59.6454524140595
 20
87.5
 11
58.7912359353396
 21
87.5
 72
     1
 10
58.7912359353396
 20
87.5
 11
58.7912359353396
 21
89.1965846374399
 72
     1
 10
58.7912359353396
 20
89.1965846374399
 11
58.563429234727
 21
89.1965846374399
 72
     1
 10
58.563429234727
 20
89.1965846374399
 11
57.9784000494027
 21
87.5
 72
     1
 10
57.9784000494027
 20
87.5
 11
56.9254683595589
 21
87.5
 72
     1
 10
56.9254683595589
 20
87.5
 11
56.2819362557022
 21
89.1965846374399
 72
     1
 10
56.2819362557022
 20
89.1965846374399
 11
56.0589375140917
 21
89.1965846374399
 72
     1
 10
56.0589375140917
 20
89.1965846374399
 11
56.0589375140917
 21
87.5
 72
     1
 10
56.0589375140917
 20
87.5
 11
55.5462938829876
 21
87.5
 72
     1
 10
55.5462938829876
 20
87.5
 11
55.5462938829876
 21
89.49279263744
 72
     1
 10
55.5462938829876
 20
89.49279263744
 11
57.0643777625685
 21
89.49279263744
 72
     1
 10
57.0643777625685
 20
89.49279263744
 11
57.5958731485235
 21
87.7920074023832
 72
     1
 10
57.5958731485235
 20
87.7920074023832
 11
58.1273685344788
 21
89.49279263744
 72
     1
 10
58.1273685344788
 20
89.49279263744
 11
59.6454524140595
 21
89.49279263744
 72
     1
 10
59.6454524140595
 20
89.49279263744
 11
59.6454524140595
 21
87.5
 97
       15
330
1F9
330
1FA
330
1FB
330
1FC
330
1F2
330
1F3
330
1F4
330
1E2
330
1DF
330
1F5
330
1F6
330
1E1
330
1E0
330
1F7
330
1F8
 75
     1
 76
     0
 52
90.00000000000001
 41
0.1
 77
     0
 78
     1
 53
90.00000000000001
 43
0.0
 44
0.0
 45
-0.1
 46
0.0
 79
     0
 98
        1
 10
0.0
 20
0.0
  0
HATCH
  5
35A
330
1F
100
AcDbEntity
  8
1
  6
Continuous
 62
     4
100
AcDbHatch
 10
0.0
 20
0.0
 30
0.0
210
0.0
220
0.0
230
1.0
  2
_USER
 70
     0
 71
     1
 91
        1
 92
        1
 93
       14
 72
     1
 10
36.6
 20
89.0
 11
36.6
 21
86.3999999999999
 72
     2
 10
34.6
 20
86.3999999999999
 40
2.0
 50
0.0
 51
90.0
 73
     0
 72
     1
 10
34.6
 20
84.3999999999999
 11
33.0
 21
84.3999999999999
 72
     1
 10
33.0
 20
84.3999999999999
 11
33.0
 21
83.5
 72
     1
 10
33.0
 20
83.5
 11
30.0
 21
84.8999999999999
 72
     1
 10
30.0
 20
84.8999999999999
 11
33.0
 21
86.2999999999999
 72
     1
 10
33.0
 20
86.2999999999999
 11
33.0
 21
85.3999999999999
 72
     1
 10
33.0
 20
85.3999999999999
 11
34.4
 21
85.3999999999999
 72
     2
 10
34.4
 20
86.6
 40
1.200000000000088
 50
270.0
 51
360.0
 73
     1
 72
     1
 10
35.6
 20
86.6
 11
35.6
 21
89.0
 72
     1
 10
35.6
 20
89.0
 11
34.7000000000001
 21
89.0
 72
     1
 10
34.7000000000001
 20
89.0
 11
36.1
 21
92.0
 72
     1
 10
36.1
 20
92.0
 11
37.5
 21
89.0
 72
     1
 10
37.5
 20
89.0
 11
36.6
 21
89.0
 97
       14
330
225
330
226
330
228
330
229
330
316
330
224
330
222
330
220
330
221
330
223
330
22B
330
317
330
22A
330
227
 75
     1
 76
     0
 52
90.00000000000001
 41
0.1
 77
     0
 78
     1
 53
90.00000000000001
 43
0.0
 44
0.0
 45
-0.1
 46
0.0
 79
     0
 98
        1
 10
0.0
 20
0.0
  0
ENDSEC
  0
SECTION
  2
OBJECTS
  0
DICTIONARY
  5
C
330
0
100
AcDbDictionary
281
     1
  3
ACAD_GROUP
350
D
  3
ACAD_LAYOUT
350
1A
  3
ACAD_MATERIAL
350
43
  3
ACAD_MLEADERSTYLE
350
35D
  3
ACAD_MLINESTYLE
350
17
  3
ACAD_PLOTSETTINGS
350
19
  3
ACAD_PLOTSTYLENAME
350
E
  3
ACAD_SCALELIST
350
47
  3
ACAD_VISUALSTYLE
350
2A
  3
AcDbVariableDictionary
350
35B
  0
DICTIONARY
  5
D
102
{ACAD_REACTORS
330
C
102
}
330
C
100
AcDbDictionary
281
     1
  0
DICTIONARY
  5
1A
102
{ACAD_REACTORS
330
C
102
}
330
C
100
AcDbDictionary
281
     1
  3
Layout1
350
1E
  3
Layout2
350
26
  3
Model
350
22
  0
DICTIONARY
  5
43
102
{ACAD_REACTORS
330
C
102
}
330
C
100
AcDbDictionary
281
     1
  3
ByBlock
350
45
  3
ByLayer
350
44
  3
Global
350
46
  0
DICTIONARY
  5
35D
102
{ACAD_REACTORS
330
C
102
}
330
C
100
AcDbDictionary
281
     1
  0
DICTIONARY
  5
17
102
{ACAD_REACTORS
330
C
102
}
330
C
100
AcDbDictionary
281
     1
  3
Standard
350
18
  0
DICTIONARY
  5
19
102
{ACAD_REACTORS
330
C
102
}
330
C
100
AcDbDictionary
281
     1
  0
ACDBDICTIONARYWDFLT
  5
E
102
{ACAD_REACTORS
330
C
102
}
330
C
100
AcDbDictionary
281
     1
  3
Normal
350
F
100
AcDbDictionaryWithDefault
340
F
  0
DICTIONARY
  5
47
102
{ACAD_REACTORS
330
C
102
}
330
C
100
AcDbDictionary
281
     1
  3
A0
350
48
  3
A1
350
49
  3
A2
350
4A
  3
A3
350
4B
  3
A4
350
4C
  3
A5
350
4D
  3
A6
350
4E
  3
A7
350
4F
  3
A8
350
50
  3
A9
350
51
  3
B0
350
52
  3
B1
350
53
  3
B2
350
54
  3
B3
350
55
  3
B4
350
56
  3
B5
350
57
  3
B6
350
58
  3
B7
350
59
  3
B8
350
5A
  3
B9
350
5B
  3
C0
350
5C
  3
C1
350
5D
  3
C2
350
5E
  3
C3
350
5F
  3
C4
350
60
  3
C5
350
61
  3
C6
350
62
  3
C7
350
63
  3
C8
350
64
  3
C9
350
65
  3
D0
350
66
  3
D1
350
67
  3
D2
350
68
  0
DICTIONARY
  5
2A
102
{ACAD_REACTORS
330
C
102
}
330
C
100
AcDbDictionary
281
     1
  3
2dWireframe
350
2F
  3
Basic
350
32
  3
Brighten
350
36
  3
ColorChange
350
3A
  3
Conceptual
350
34
  3
Dim
350
35
  3
EdgeColorOff
350
3D
  3
Facepattern
350
39
  3
Flat
350
2B
  3
FlatWithEdges
350
2C
  3
Gouraud
350
2D
  3
GouraudWithEdges
350
2E
  3
Hidden
350
31
  3
JitterOff
350
3B
  3
Linepattern
350
38
  3
OverhangOff
350
3C
  3
Realistic
350
33
  3
Shaded
350
42
  3
Shaded with edges
350
41
  3
Shades of Gray
350
3E
  3
Sketchy
350
3F
  3
Thicken
350
37
  3
Wireframe
350
30
  3
X-Ray
350
40
  0
DICTIONARY
  5
35B
102
{ACAD_REACTORS
330
C
102
}
330
C
100
AcDbDictionary
281
     1
  3
CANNOSCALE
350
362
  3
DIMASSOC
350
360
  3
HIDETEXT
350
361
  3
MSLTSCALE
350
363
  0
LAYOUT
  5
1E
102
{ACAD_REACTORS
330
1A
102
}
330
1A
100
AcDbPlotSettings
  1

  2
none_device
  4

  6

 40
0.0
 41
0.0
 42
0.0
 43
0.0
 44
0.0
 45
0.0
 46
0.0
 47
0.0
 48
0.0
 49
0.0
140
0.0
141
0.0
142
1.0
143
1.0
 70
   688
 72
     0
 73
     0
 74
     5
  7

 75
    16
147
1.0
148
0.0
149
0.0
100
AcDbLayout
  1
Layout1
 70
     1
 71
     1
 10
0.0
 20
0.0
 11
12.0
 21
9.0
 12
0.0
 22
0.0
 32
0.0
 14
1.00000000000000E+20
 24
1.00000000000000E+20
 34
1.00000000000000E+20
 15
-1.00000000000000E+20
 25
-1.00000000000000E+20
 35
-1.00000000000000E+20
146
0.0
 13
0.0
 23
0.0
 33
0.0
 16
1.0
 26
0.0
 36
0.0
 17
0.0
 27
1.0
 37
0.0
 76
     0
330
1B
  0
LAYOUT
  5
26
102
{ACAD_REACTORS
330
1A
102
}
330
1A
100
AcDbPlotSettings
  1

  2
none_device
  4

  6

 40
0.0
 41
0.0
 42
0.0
 43
0.0
 44
0.0
 45
0.0
 46
0.0
 47
0.0
 48
0.0
 49
0.0
140
0.0
141
0.0
142
1.0
143
1.0
 70
   688
 72
     0
 73
     0
 74
     5
  7

 75
    16
147
1.0
148
0.0
149
0.0
100
AcDbLayout
  1
Layout2
 70
     1
 71
     2
 10
0.0
 20
0.0
 11
0.0
 21
0.0
 12
0.0
 22
0.0
 32
0.0
 14
0.0
 24
0.0
 34
0.0
 15
0.0
 25
0.0
 35
0.0
146
0.0
 13
0.0
 23
0.0
 33
0.0
 16
1.0
 26
0.0
 36
0.0
 17
0.0
 27
1.0
 37
0.0
 76
     0
330
23
  0
LAYOUT
  5
22
102
{ACAD_REACTORS
330
1A
102
}
330
1A
100
AcDbPlotSettings
  1

  2
none_device
  4
Letter_(8.50_x_11.00_Inches)
  6

 40
6.35
 41
6.35
 42
6.35000508
 43
6.35000508
 44
215.9
 45
279.4
 46
0.0
 47
0.0
 48
0.0
 49
0.0
140
0.0
141
0.0
142
1.0
143
1.0
 70
  1712
 72
     0
 73
     0
 74
     0
  7

 75
     0
147
1.0
148
0.0
149
0.0
100
AcDbLayout
  1
Model
 70
     1
 71
     0
 10
0.0
 20
0.0
 11
12.0
 21
9.0
 12
0.0
 22
0.0
 32
0.0
 14
-120.944431687203
 24
-34.3366486287765
 34
0.0
 15
82.2261955126917
 25
128.94228816854
 35
0.0
146
0.0
 13
0.0
 23
0.0
 33
0.0
 16
1.0
 26
0.0
 36
0.0
 17
0.0
 27
1.0
 37
0.0
 76
     0
330
1F
331
29
  0
MATERIAL
  5
45
102
{ACAD_REACTORS
330
43
102
}
102
{ACAD_XDICTIONARY
360
396
102
}
330
43
100
AcDbMaterial
  1
ByBlock
  0
MATERIAL
  5
44
102
{ACAD_REACTORS
330
43
102
}
102
{ACAD_XDICTIONARY
360
394
102
}
330
43
100
AcDbMaterial
  1
ByLayer
  0
MATERIAL
  5
46
102
{ACAD_REACTORS
330
43
102
}
102
{ACAD_XDICTIONARY
360
398
102
}
330
43
100
AcDbMaterial
  1
Global
  0
MLINESTYLE
  5
18
102
{ACAD_REACTORS
330
17
102
}
330
17
100
AcDbMlineStyle
  2
Standard
 70
     0
  3

 62
   256
 51
90.0
 52
90.0
 71
     2
 49
0.5
 62
   256
  6
BYLAYER
 49
-0.5
 62
   256
  6
BYLAYER
  0
ACDBPLACEHOLDER
  5
F
102
{ACAD_REACTORS
330
E
102
}
330
E
  0
SCALE
  5
48
102
{ACAD_REACTORS
330
47
102
}
330
47
100
AcDbScale
 70
     0
300
1:1
140
1.0
141
1.0
290
     1
  0
SCALE
  5
49
102
{ACAD_REACTORS
330
47
102
}
330
47
100
AcDbScale
 70
     0
300
1:2
140
1.0
141
2.0
290
     0
  0
SCALE
  5
4A
102
{ACAD_REACTORS
330
47
102
}
330
47
100
AcDbScale
 70
     0
300
1:4
140
1.0
141
4.0
290
     0
  0
SCALE
  5
4B
102
{ACAD_REACTORS
330
47
102
}
330
47
100
AcDbScale
 70
     0
300
1:5
140
1.0
141
5.0
290
     0
  0
SCALE
  5
4C
102
{ACAD_REACTORS
330
47
102
}
330
47
100
AcDbScale
 70
     0
300
1:8
140
1.0
141
8.0
290
     0
  0
SCALE
  5
4D
102
{ACAD_REACTORS
330
47
102
}
330
47
100
AcDbScale
 70
     0
300
1:10
140
1.0
141
10.0
290
     0
  0
SCALE
  5
4E
102
{ACAD_REACTORS
330
47
102
}
330
47
100
AcDbScale
 70
     0
300
1:16
140
1.0
141
16.0
290
     0
  0
SCALE
  5
4F
102
{ACAD_REACTORS
330
47
102
}
330
47
100
AcDbScale
 70
     0
300
1:20
140
1.0
141
20.0
290
     0
  0
SCALE
  5
50
102
{ACAD_REACTORS
330
47
102
}
330
47
100
AcDbScale
 70
     0
300
1:30
140
1.0
141
30.0
290
     0
  0
SCALE
  5
51
102
{ACAD_REACTORS
330
47
102
}
330
47
100
AcDbScale
 70
     0
300
1:40
140
1.0
141
40.0
290
     0
  0
SCALE
  5
52
102
{ACAD_REACTORS
330
47
102
}
330
47
100
AcDbScale
 70
     0
300
1:50
140
1.0
141
50.0
290
     0
  0
SCALE
  5
53
102
{ACAD_REACTORS
330
47
102
}
330
47
100
AcDbScale
 70
     0
300
1:100
140
1.0
141
100.0
290
     0
  0
SCALE
  5
54
102
{ACAD_REACTORS
330
47
102
}
330
47
100
AcDbScale
 70
     0
300
2:1
140
2.0
141
1.0
290
     0
  0
SCALE
  5
55
102
{ACAD_REACTORS
330
47
102
}
330
47
100
AcDbScale
 70
     0
300
4:1
140
4.0
141
1.0
290
     0
  0
SCALE
  5
56
102
{ACAD_REACTORS
330
47
102
}
330
47
100
AcDbScale
 70
     0
300
8:1
140
8.0
141
1.0
290
     0
  0
SCALE
  5
57
102
{ACAD_REACTORS
330
47
102
}
330
47
100
AcDbScale
 70
     0
300
10:1
140
10.0
141
1.0
290
     0
  0
SCALE
  5
58
102
{ACAD_REACTORS
330
47
102
}
330
47
100
AcDbScale
 70
     0
300
100:1
140
100.0
141
1.0
290
     0
  0
SCALE
  5
59
102
{ACAD_REACTORS
330
47
102
}
330
47
100
AcDbScale
 70
     0
300
1/128" = 1'-0"
140
0.0078125
141
12.0
290
     0
  0
SCALE
  5
5A
102
{ACAD_REACTORS
330
47
102
}
330
47
100
AcDbScale
 70
     0
300
1/64" = 1'-0"
140
0.015625
141
12.0
290
     0
  0
SCALE
  5
5B
102
{ACAD_REACTORS
330
47
102
}
330
47
100
AcDbScale
 70
     0
300
1/32" = 1'-0"
140
0.03125
141
12.0
290
     0
  0
SCALE
  5
5C
102
{ACAD_REACTORS
330
47
102
}
330
47
100
AcDbScale
 70
     0
300
1/16" = 1'-0"
140
0.0625
141
12.0
290
     0
  0
SCALE
  5
5D
102
{ACAD_REACTORS
330
47
102
}
330
47
100
AcDbScale
 70
     0
300
3/32" = 1'-0"
140
0.09375
141
12.0
290
     0
  0
SCALE
  5
5E
102
{ACAD_REACTORS
330
47
102
}
330
47
100
AcDbScale
 70
     0
300
1/8" = 1'-0"
140
0.125
141
12.0
290
     0
  0
SCALE
  5
5F
102
{ACAD_REACTORS
330
47
102
}
330
47
100
AcDbScale
 70
     0
300
3/16" = 1'-0"
140
0.1875
141
12.0
290
     0
  0
SCALE
  5
60
102
{ACAD_REACTORS
330
47
102
}
330
47
100
AcDbScale
 70
     0
300
1/4" = 1'-0"
140
0.25
141
12.0
290
     0
  0
SCALE
  5
61
102
{ACAD_REACTORS
330
47
102
}
330
47
100
AcDbScale
 70
     0
300
3/8" = 1'-0"
140
0.375
141
12.0
290
     0
  0
SCALE
  5
62
102
{ACAD_REACTORS
330
47
102
}
330
47
100
AcDbScale
 70
     0
300
1/2" = 1'-0"
140
0.5
141
12.0
290
     0
  0
SCALE
  5
63
102
{ACAD_REACTORS
330
47
102
}
330
47
100
AcDbScale
 70
     0
300
3/4" = 1'-0"
140
0.75
141
12.0
290
     0
  0
SCALE
  5
64
102
{ACAD_REACTORS
330
47
102
}
330
47
100
AcDbScale
 70
     0
300
1" = 1'-0"
140
1.0
141
12.0
290
     0
  0
SCALE
  5
65
102
{ACAD_REACTORS
330
47
102
}
330
47
100
AcDbScale
 70
     0
300
1-1/2" = 1'-0"
140
1.5
141
12.0
290
     0
  0
SCALE
  5
66
102
{ACAD_REACTORS
330
47
102
}
330
47
100
AcDbScale
 70
     0
300
3" = 1'-0"
140
3.0
141
12.0
290
     0
  0
SCALE
  5
67
102
{ACAD_REACTORS
330
47
102
}
330
47
100
AcDbScale
 70
     0
300
6" = 1'-0"
140
6.0
141
12.0
290
     0
  0
SCALE
  5
68
102
{ACAD_REACTORS
330
47
102
}
330
47
100
AcDbScale
 70
     0
300
1'-0" = 1'-0"
140
12.0
141
12.0
290
     0
  0
VISUALSTYLE
  5
2F
102
{ACAD_REACTORS
330
2A
102
}
102
{ACAD_XDICTIONARY
360
36C
102
}
330
2A
100
AcDbVisualStyle
  2
2dWireframe
 70
     4
 71
     0
 72
     2
 73
     0
 90
        0
 40
0.6
 41
30.0
 62
     5
 63
     7
 74
     1
 91
        4
 64
     7
 65
   257
 75
     1
175
     1
 42
1.0
 92
        0
 66
   257
 43
1.0
 76
     1
 77
     6
 78
     2
 67
     7
 79
     5
170
     0
171
     0
290
     0
174
     0
 93
        1
 44
0.0
173
     0
291
     0
 45
0.0
1001
ACAD
1000
AcDbSavedByObjectVersion
1070
     0
  0
VISUALSTYLE
  5
32
102
{ACAD_REACTORS
330
2A
102
}
102
{ACAD_XDICTIONARY
360
372
102
}
330
2A
100
AcDbVisualStyle
  2
Basic
 70
     7
 71
     1
 72
     0
 73
     1
 90
        0
 40
0.6
 41
30.0
 62
     5
 63
     7
 74
     0
 91
        4
 64
     7
 65
   257
 75
     1
175
     1
 42
1.0
 92
        8
 66
     7
 43
1.0
 76
     1
 77
     6
 78
     2
 67
     7
 79
     5
170
     0
171
     0
290
     0
174
     0
 93
        1
 44
0.0
173
     0
291
     1
 45
0.0
1001
ACAD
1000
AcDbSavedByObjectVersion
1070
     0
  0
VISUALSTYLE
  5
36
102
{ACAD_REACTORS
330
2A
102
}
102
{ACAD_XDICTIONARY
360
37A
102
}
330
2A
100
AcDbVisualStyle
  2
Brighten
 70
    12
 71
     2
 72
     2
 73
     0
 90
        0
 40
0.6
 41
30.0
 62
     5
 63
     7
 74
     1
 91
        4
 64
     7
 65
   257
 75
     1
175
     1
 42
1.0
 92
        8
 66
     7
 43
1.0
 76
     1
 77
     6
 78
     2
 67
     7
 79
     5
170
     0
171
     0
290
     0
174
     0
 93
        1
 44
50.0
173
     0
291
     1
 45
0.0
1001
ACAD
1000
AcDbSavedByObjectVersion
1070
     0
  0
VISUALSTYLE
  5
3A
102
{ACAD_REACTORS
330
2A
102
}
102
{ACAD_XDICTIONARY
360
382
102
}
330
2A
100
AcDbVisualStyle
  2
ColorChange
 70
    16
 71
     2
 72
     2
 73
     3
 90
        0
 40
0.6
 41
30.0
 62
     5
 63
     8
 74
     1
 91
        4
 64
     7
 65
   257
 75
     1
175
     1
 42
1.0
 92
        8
 66
     8
 43
1.0
 76
     1
 77
     6
 78
     2
 67
     7
 79
     5
170
     0
171
     0
290
     0
174
     0
 93
        1
 44
0.0
173
     0
291
     1
 45
0.0
1001
ACAD
1000
AcDbSavedByObjectVersion
1070
     0
  0
VISUALSTYLE
  5
34
102
{ACAD_REACTORS
330
2A
102
}
102
{ACAD_XDICTIONARY
360
376
102
}
330
2A
100
AcDbVisualStyle
  2
Conceptual
 70
     9
 71
     3
 72
     2
 73
     0
 90
        0
 40
0.6
 41
30.0
 62
     5
 63
     7
 74
     2
 91
        2
 64
     7
 65
   257
 75
     1
175
     1
 42
179.0
 92
        8
 66
     7
 43
1.0
 76
     1
 77
     6
 78
     2
 67
     7
 79
     3
170
     0
171
     0
290
     0
174
     0
 93
        1
 44
0.0
173
     0
291
     0
 45
0.0
1001
ACAD
1000
AcDbSavedByObjectVersion
1070
     0
  0
VISUALSTYLE
  5
35
102
{ACAD_REACTORS
330
2A
102
}
102
{ACAD_XDICTIONARY
360
378
102
}
330
2A
100
AcDbVisualStyle
  2
Dim
 70
    11
 71
     2
 72
     2
 73
     0
 90
        0
 40
0.6
 41
30.0
 62
     5
 63
     7
 74
     1
 91
        4
 64
     7
 65
   257
 75
     1
175
     1
 42
1.0
 92
        8
 66
     7
 43
1.0
 76
     1
 77
     6
 78
     2
 67
     7
 79
     5
170
     0
171
     0
290
     0
174
     0
 93
        1
 44
-50.0
173
     0
291
     1
 45
0.0
1001
ACAD
1000
AcDbSavedByObjectVersion
1070
     0
  0
VISUALSTYLE
  5
3D
102
{ACAD_REACTORS
330
2A
102
}
102
{ACAD_XDICTIONARY
360
388
102
}
330
2A
100
AcDbVisualStyle
  2
EdgeColorOff
 70
    22
 71
     2
 72
     2
 73
     0
 90
        0
 40
0.6
 41
30.0
 62
     5
 63
     7
 74
     1
 91
        4
 64
     7
 65
   257
 75
     1
175
     1
 42
1.0
 92
        8
 66
     7
 43
1.0
 76
     1
 77
     6
 78
     2
 67
     7
 79
     5
170
     0
171
     0
290
     0
174
     0
 93
        1
 44
0.0
173
     0
291
     1
 45
0.0
1001
ACAD
1000
AcDbSavedByObjectVersion
1070
     0
  0
VISUALSTYLE
  5
39
102
{ACAD_REACTORS
330
2A
102
}
102
{ACAD_XDICTIONARY
360
380
102
}
330
2A
100
AcDbVisualStyle
  2
Facepattern
 70
    15
 71
     2
 72
     2
 73
     0
 90
        0
 40
0.6
 41
30.0
 62
     5
 63
     7
 74
     1
 91
        4
 64
     7
 65
   257
 75
     1
175
     1
 42
1.0
 92
        8
 66
     7
 43
1.0
 76
     1
 77
     6
 78
     2
 67
     7
 79
     5
170
     0
171
     0
290
     0
174
     0
 93
        1
 44
0.0
173
     0
291
     1
 45
0.0
1001
ACAD
1000
AcDbSavedByObjectVersion
1070
     0
  0
VISUALSTYLE
  5
2B
102
{ACAD_REACTORS
330
2A
102
}
102
{ACAD_XDICTIONARY
360
364
102
}
330
2A
100
AcDbVisualStyle
  2
Flat
 70
     0
 71
     2
 72
     1
 73
     1
 90
        2
 40
0.6
 41
30.0
 62
     5
 63
     7
 74
     0
 91
        0
 64
     7
 65
   257
 75
     1
175
     1
 42
1.0
 92
        8
 66
     7
 43
1.0
 76
     1
 77
     6
 78
     2
 67
     7
 79
     5
170
     0
171
     0
290
     0
174
     0
 93
       13
 44
0.0
173
     0
291
     1
 45
0.0
1001
ACAD
1000
AcDbSavedByObjectVersion
1070
     0
  0
VISUALSTYLE
  5
2C
102
{ACAD_REACTORS
330
2A
102
}
102
{ACAD_XDICTIONARY
360
366
102
}
330
2A
100
AcDbVisualStyle
  2
FlatWithEdges
 70
     1
 71
     2
 72
     1
 73
     1
 90
        2
 40
0.6
 41
30.0
 62
     5
 63
     7
 74
     1
 91
        0
 64
     7
 65
   257
 75
     1
175
     1
 42
1.0
 92
        0
 66
   257
 43
1.0
 76
     1
 77
     6
 78
     2
 67
     7
 79
     5
170
     0
171
     0
290
     0
174
     0
 93
       13
 44
0.0
173
     0
291
     1
 45
0.0
1001
ACAD
1000
AcDbSavedByObjectVersion
1070
     0
  0
VISUALSTYLE
  5
2D
102
{ACAD_REACTORS
330
2A
102
}
102
{ACAD_XDICTIONARY
360
368
102
}
330
2A
100
AcDbVisualStyle
  2
Gouraud
 70
     2
 71
     2
 72
     2
 73
     1
 90
        2
 40
0.6
 41
30.0
 62
     5
 63
     7
 74
     0
 91
        0
 64
     7
 65
   257
 75
     1
175
     1
 42
1.0
 92
        0
 66
     7
 43
1.0
 76
     1
 77
     6
 78
     2
 67
     7
 79
     5
170
     0
171
     0
290
     0
174
     0
 93
       13
 44
0.0
173
     0
291
     1
 45
0.0
1001
ACAD
1000
AcDbSavedByObjectVersion
1070
     0
  0
VISUALSTYLE
  5
2E
102
{ACAD_REACTORS
330
2A
102
}
102
{ACAD_XDICTIONARY
360
36A
102
}
330
2A
100
AcDbVisualStyle
  2
GouraudWithEdges
 70
     3
 71
     2
 72
     2
 73
     1
 90
        2
 40
0.6
 41
30.0
 62
     5
 63
     7
 74
     1
 91
        0
 64
     7
 65
   257
 75
     1
175
     1
 42
1.0
 92
        0
 66
   257
 43
1.0
 76
     1
 77
     6
 78
     2
 67
     7
 79
     5
170
     0
171
     0
290
     0
174
     0
 93
       13
 44
0.0
173
     0
291
     1
 45
0.0
1001
ACAD
1000
AcDbSavedByObjectVersion
1070
     0
  0
VISUALSTYLE
  5
31
102
{ACAD_REACTORS
330
2A
102
}
102
{ACAD_XDICTIONARY
360
370
102
}
330
2A
100
AcDbVisualStyle
  2
Hidden
 70
     6
 71
     1
 72
     2
 73
     2
 90
        0
 40
0.6
 41
30.0
 62
     5
 63
     7
 74
     2
 91
        2
 64
     7
 65
   257
 75
     2
175
     1
 42
40.0
 92
        0
 66
   257
 43
1.0
 76
     1
 77
     6
 78
     2
 67
     7
 79
     3
170
     0
171
     0
290
     0
174
     0
 93
        1
 44
0.0
173
     0
291
     0
 45
0.0
1001
ACAD
1000
AcDbSavedByObjectVersion
1070
     0
  0
VISUALSTYLE
  5
3B
102
{ACAD_REACTORS
330
2A
102
}
102
{ACAD_XDICTIONARY
360
384
102
}
330
2A
100
AcDbVisualStyle
  2
JitterOff
 70
    20
 71
     2
 72
     2
 73
     0
 90
        0
 40
0.6
 41
30.0
 62
     5
 63
     7
 74
     1
 91
        4
 64
     7
 65
   257
 75
     1
175
     1
 42
1.0
 92
       10
 66
     7
 43
1.0
 76
     1
 77
     6
 78
     2
 67
     7
 79
     5
170
     0
171
     0
290
     0
174
     0
 93
        1
 44
0.0
173
     0
291
     1
 45
0.0
1001
ACAD
1000
AcDbSavedByObjectVersion
1070
     0
  0
VISUALSTYLE
  5
38
102
{ACAD_REACTORS
330
2A
102
}
102
{ACAD_XDICTIONARY
360
37E
102
}
330
2A
100
AcDbVisualStyle
  2
Linepattern
 70
    14
 71
     2
 72
     2
 73
     0
 90
        0
 40
0.6
 41
30.0
 62
     5
 63
     7
 74
     1
 91
        4
 64
     7
 65
   257
 75
     7
175
     7
 42
1.0
 92
        8
 66
     7
 43
1.0
 76
     1
 77
     6
 78
     2
 67
     7
 79
     5
170
     0
171
     0
290
     0
174
     0
 93
        1
 44
0.0
173
     0
291
     1
 45
0.0
1001
ACAD
1000
AcDbSavedByObjectVersion
1070
     0
  0
VISUALSTYLE
  5
3C
102
{ACAD_REACTORS
330
2A
102
}
102
{ACAD_XDICTIONARY
360
386
102
}
330
2A
100
AcDbVisualStyle
  2
OverhangOff
 70
    21
 71
     2
 72
     2
 73
     0
 90
        0
 40
0.6
 41
30.0
 62
     5
 63
     7
 74
     1
 91
        4
 64
     7
 65
   257
 75
     1
175
     1
 42
1.0
 92
        9
 66
     7
 43
1.0
 76
     1
 77
     6
 78
     2
 67
     7
 79
     5
170
     0
171
     0
290
     0
174
     0
 93
        1
 44
0.0
173
     0
291
     1
 45
0.0
1001
ACAD
1000
AcDbSavedByObjectVersion
1070
     0
  0
VISUALSTYLE
  5
33
102
{ACAD_REACTORS
330
2A
102
}
102
{ACAD_XDICTIONARY
360
374
102
}
330
2A
100
AcDbVisualStyle
  2
Realistic
 70
     8
 71
     2
 72
     3
 73
     0
 90
        2
 40
0.6
 41
30.0
 62
     5
 63
     7
 74
     0
 91
        0
 64
     7
 65
   257
 75
     1
175
     1
 42
1.0
 92
        8
 66
   257
 43
1.0
 76
     1
 77
     6
 78
     2
 67
     7
 79
     3
170
     0
171
     0
290
     0
174
     0
 93
       13
 44
0.0
173
     0
291
     0
 45
0.0
1001
ACAD
1000
AcDbSavedByObjectVersion
1070
     0
  0
VISUALSTYLE
  5
42
102
{ACAD_REACTORS
330
2A
102
}
102
{ACAD_XDICTIONARY
360
392
102
}
330
2A
100
AcDbVisualStyle
  2
Shaded
 70
    27
 71
     2
 72
     2
 73
     1
 90
        2
 40
0.6
 41
30.0
 62
     5
 63
     7
 74
     0
 91
        4
 64
     7
 65
   257
 75
     1
175
     1
 42
1.0
 92
        8
 66
   257
 43
1.0
 76
     1
 77
     6
 78
     2
 67
     8
 79
     3
170
     0
171
     0
290
     0
174
     0
 93
        5
 44
0.0
173
     0
291
     0
 45
0.0
1001
ACAD
1000
AcDbSavedByObjectVersion
1070
     0
  0
VISUALSTYLE
  5
41
102
{ACAD_REACTORS
330
2A
102
}
102
{ACAD_XDICTIONARY
360
390
102
}
330
2A
100
AcDbVisualStyle
  2
Shaded with edges
 70
    26
 71
     2
 72
     2
 73
     1
 90
        2
 40
0.6
 41
30.0
 62
     5
 63
     7
 74
     1
 91
       10
 64
     7
 65
   257
 75
     2
175
     1
 42
1.0
 92
        8
 66
   257
 43
1.0
 76
     1
 77
     6
 78
     2
 67
     7
 79
     3
170
     0
171
     0
290
     0
174
     0
 93
        5
 44
0.0
173
     0
291
     0
 45
0.0
1001
ACAD
1000
AcDbSavedByObjectVersion
1070
     0
  0
VISUALSTYLE
  5
3E
102
{ACAD_REACTORS
330
2A
102
}
102
{ACAD_XDICTIONARY
360
38A
102
}
330
2A
100
AcDbVisualStyle
  2
Shades of Gray
 70
    23
 71
     2
 72
     2
 73
     3
 90
        0
 40
0.6
 41
30.0
 62
     5
 63
     7
 74
     2
 91
        2
 64
     7
 65
     7
 75
     1
175
     1
 42
40.0
 92
        8
 66
     7
 43
1.0
 76
     1
 77
     6
 78
     2
 67
     7
 79
     3
170
     0
171
     0
290
     0
174
     0
 93
        1
 44
0.0
173
     0
291
     0
 45
0.0
1001
ACAD
1000
AcDbSavedByObjectVersion
1070
     0
  0
VISUALSTYLE
  5
3F
102
{ACAD_REACTORS
330
2A
102
}
102
{ACAD_XDICTIONARY
360
38C
102
}
330
2A
100
AcDbVisualStyle
  2
Sketchy
 70
    24
 71
     1
 72
     2
 73
     2
 90
        0
 40
0.6
 41
30.0
 62
     5
 63
     7
 74
     2
 91
        2
 64
     7
 65
     7
 75
     1
175
     1
 42
40.0
 92
       11
 66
     7
 43
1.0
 76
     1
 77
     6
 78
     2
 67
     7
 79
     6
170
     0
171
     0
290
     0
174
     0
 93
        1
 44
0.0
173
     0
291
     0
 45
0.0
1001
ACAD
1000
AcDbSavedByObjectVersion
1070
     0
  0
VISUALSTYLE
  5
37
102
{ACAD_REACTORS
330
2A
102
}
102
{ACAD_XDICTIONARY
360
37C
102
}
330
2A
100
AcDbVisualStyle
  2
Thicken
 70
    13
 71
     2
 72
     2
 73
     0
 90
        0
 40
0.6
 41
30.0
 62
     5
 63
     7
 74
     1
 91
        4
 64
     7
 65
   257
 75
     1
175
     1
 42
1.0
 92
       12
 66
     7
 43
1.0
 76
     1
 77
     6
 78
     2
 67
     7
 79
     5
170
     0
171
     0
290
     0
174
     0
 93
        1
 44
0.0
173
     0
291
     1
 45
0.0
1001
ACAD
1000
AcDbSavedByObjectVersion
1070
     0
  0
VISUALSTYLE
  5
30
102
{ACAD_REACTORS
330
2A
102
}
102
{ACAD_XDICTIONARY
360
36E
102
}
330
2A
100
AcDbVisualStyle
  2
Wireframe
 70
     5
 71
     0
 72
     2
 73
     0
 90
        0
 40
0.6
 41
30.0
 62
     5
 63
     7
 74
     1
 91
        4
 64
     7
 65
   257
 75
     1
175
     1
 42
1.0
 92
        0
 66
   257
 43
1.0
 76
     1
 77
     6
 78
     2
 67
     7
 79
     3
170
     0
171
     0
290
     0
174
     0
 93
        1
 44
0.0
173
     0
291
     0
 45
0.0
1001
ACAD
1000
AcDbSavedByObjectVersion
1070
     0
  0
VISUALSTYLE
  5
40
102
{ACAD_REACTORS
330
2A
102
}
102
{ACAD_XDICTIONARY
360
38E
102
}
330
2A
100
AcDbVisualStyle
  2
X-Ray
 70
    25
 71
     2
 72
     2
 73
     1
 90
        1
 40
0.5
 41
30.0
 62
     5
 63
     7
 74
     1
 91
        0
 64
     7
 65
   257
 75
     1
175
     1
 42
1.0
 92
        8
 66
     7
 43
1.0
 76
     1
 77
     6
 78
     2
 67
     7
 79
     3
170
     0
171
     0
290
     0
174
     0
 93
       13
 44
0.0
173
     0
291
     0
 45
0.0
1001
ACAD
1000
AcDbSavedByObjectVersion
1070
     0
  0
DICTIONARYVAR
  5
362
102
{ACAD_REACTORS
330
35B
102
}
330
35B
100
DictionaryVariables
280
     0
  1
1:1
  0
DICTIONARYVAR
  5
360
102
{ACAD_REACTORS
330
35B
102
}
330
35B
100
DictionaryVariables
280
     0
  1
2
  0
DICTIONARYVAR
  5
361
102
{ACAD_REACTORS
330
35B
102
}
330
35B
100
DictionaryVariables
280
     0
  1
1
  0
DICTIONARYVAR
  5
363
102
{ACAD_REACTORS
330
35B
102
}
330
35B
100
DictionaryVariables
280
     0
  1
1
  0
DICTIONARY
  5
396
330
45
100
AcDbDictionary
280
     1
281
     1
  3
ACAD_XREC_ROUNDTRIP
360
397
  0
DICTIONARY
  5
394
330
44
100
AcDbDictionary
280
     1
281
     1
  3
ACAD_XREC_ROUNDTRIP
360
395
  0
DICTIONARY
  5
398
330
46
100
AcDbDictionary
280
     1
281
     1
  3
ACAD_XREC_ROUNDTRIP
360
399
  0
DICTIONARY
  5
36C
330
2F
100
AcDbDictionary
280
     1
281
     1
  3
ACAD_XREC_ROUNDTRIP
360
36D
  0
DICTIONARY
  5
372
330
32
100
AcDbDictionary
280
     1
281
     1
  3
ACAD_XREC_ROUNDTRIP
360
373
  0
DICTIONARY
  5
37A
330
36
100
AcDbDictionary
280
     1
281
     1
  3
ACAD_XREC_ROUNDTRIP
360
37B
  0
DICTIONARY
  5
382
330
3A
100
AcDbDictionary
280
     1
281
     1
  3
ACAD_XREC_ROUNDTRIP
360
383
  0
DICTIONARY
  5
376
330
34
100
AcDbDictionary
280
     1
281
     1
  3
ACAD_XREC_ROUNDTRIP
360
377
  0
DICTIONARY
  5
378
330
35
100
AcDbDictionary
280
     1
281
     1
  3
ACAD_XREC_ROUNDTRIP
360
379
  0
DICTIONARY
  5
388
330
3D
100
AcDbDictionary
280
     1
281
     1
  3
ACAD_XREC_ROUNDTRIP
360
389
  0
DICTIONARY
  5
380
330
39
100
AcDbDictionary
280
     1
281
     1
  3
ACAD_XREC_ROUNDTRIP
360
381
  0
DICTIONARY
  5
364
330
2B
100
AcDbDictionary
280
     1
281
     1
  3
ACAD_XREC_ROUNDTRIP
360
365
  0
DICTIONARY
  5
366
330
2C
100
AcDbDictionary
280
     1
281
     1
  3
ACAD_XREC_ROUNDTRIP
360
367
  0
DICTIONARY
  5
368
330
2D
100
AcDbDictionary
280
     1
281
     1
  3
ACAD_XREC_ROUNDTRIP
360
369
  0
DICTIONARY
  5
36A
330
2E
100
AcDbDictionary
280
     1
281
     1
  3
ACAD_XREC_ROUNDTRIP
360
36B
  0
DICTIONARY
  5
370
330
31
100
AcDbDictionary
280
     1
281
     1
  3
ACAD_XREC_ROUNDTRIP
360
371
  0
DICTIONARY
  5
384
330
3B
100
AcDbDictionary
280
     1
281
     1
  3
ACAD_XREC_ROUNDTRIP
360
385
  0
DICTIONARY
  5
37E
330
38
100
AcDbDictionary
280
     1
281
     1
  3
ACAD_XREC_ROUNDTRIP
360
37F
  0
DICTIONARY
  5
386
330
3C
100
AcDbDictionary
280
     1
281
     1
  3
ACAD_XREC_ROUNDTRIP
360
387
  0
DICTIONARY
  5
374
330
33
100
AcDbDictionary
280
     1
281
     1
  3
ACAD_XREC_ROUNDTRIP
360
375
  0
DICTIONARY
  5
392
330
42
100
AcDbDictionary
280
     1
281
     1
  3
ACAD_XREC_ROUNDTRIP
360
393
  0
DICTIONARY
  5
390
330
41
100
AcDbDictionary
280
     1
281
     1
  3
ACAD_XREC_ROUNDTRIP
360
391
  0
DICTIONARY
  5
38A
330
3E
100
AcDbDictionary
280
     1
281
     1
  3
ACAD_XREC_ROUNDTRIP
360
38B
  0
DICTIONARY
  5
38C
330
3F
100
AcDbDictionary
280
     1
281
     1
  3
ACAD_XREC_ROUNDTRIP
360
38D
  0
DICTIONARY
  5
37C
330
37
100
AcDbDictionary
280
     1
281
     1
  3
ACAD_XREC_ROUNDTRIP
360
37D
  0
DICTIONARY
  5
36E
330
30
100
AcDbDictionary
280
     1
281
     1
  3
ACAD_XREC_ROUNDTRIP
360
36F
  0
DICTIONARY
  5
38E
330
40
100
AcDbDictionary
280
     1
281
     1
  3
ACAD_XREC_ROUNDTRIP
360
38F
  0
XRECORD
  5
397
102
{ACAD_REACTORS
330
396
102
}
330
396
100
AcDbXrecord
280
     1
102
MATERIAL
148
0.0
149
0.0
149
0.0
 93
        0
 94
      127
282
     0
 72
     1
 77
     1
171
     1
175
     1
179
     1
273
     0
  0
XRECORD
  5
395
102
{ACAD_REACTORS
330
394
102
}
330
394
100
AcDbXrecord
280
     1
102
MATERIAL
148
0.0
149
0.0
149
0.0
 93
        0
 94
      127
282
     0
 72
     1
 77
     1
171
     1
175
     1
179
     1
273
     0
  0
XRECORD
  5
399
102
{ACAD_REACTORS
330
398
102
}
330
398
100
AcDbXrecord
280
     1
102
MATERIAL
148
0.0
149
0.0
149
0.0
 93
        0
 94
      127
282
     0
 72
     1
 77
     1
171
     1
175
     1
179
     1
273
     0
  0
XRECORD
  5
36D
102
{ACAD_REACTORS
330
36C
102
}
330
36C
100
AcDbXrecord
280
     1
102
RTVSPropertyOp0
 70
     1
102
RTVSPropertyOp1
 70
     1
102
RTVSPropertyOp2
 70
     1
102
RTVSPropertyOp3
 70
     1
102
RTVSPropertyOp4
 70
     1
102
RTVSPropertyOp5
 70
     1
102
RTVSPropertyOp6
 70
     1
102
RTVSPropertyOp7
 70
     1
102
RTVSPropertyOp8
 70
     1
102
RTVSPropertyOp9
 70
     1
102
RTVSPropertyOp10
 70
     1
102
RTVSPropertyOp11
 70
     1
102
RTVSPropertyOp12
 70
     1
102
RTVSPropertyOp13
 70
     1
102
RTVSPropertyOp14
 70
     1
102
RTVSPropertyOp15
 70
     1
102
RTVSPropertyOp16
 70
     1
102
RTVSPropertyOp17
 70
     1
102
RTVSPropertyOp18
 70
     1
102
RTVSPropertyOp19
 70
     1
102
RTVSPropertyOp20
 70
     1
102
RTVSPropertyOp21
 70
     1
102
RTVSPropertyOp22
 70
     1
102
RTVSPropertyOp23
 70
     1
102
RTVSPropertyOp24
 70
     1
102
RTVSPropertyOp25
 70
     1
102
RTVSPropertyOp26
 70
     1
102
RTVSPropertyOp27
 70
     1
102
RTVSPropertyOp28
 70
     1
102
RTVSPropertyOp29
 70
     1
102
RTVSPropertyOp30
 70
     1
102
RTVSPropertyOp31
 70
     1
102
RTVSPropertyOp32
 70
     1
102
RTVSPropertyOp33
 70
     1
102
RTVSPropertyOp34
 70
     1
102
RTVSPropertyOp35
 70
     1
102
RTVSPropertyOp36
 70
     1
102
RTVSPropertyOp37
 70
     1
102
RTVSPropertyOp38
 70
     1
102
RTVSPropertyOp39
 70
     1
102
RTVSPropertyOp40
 70
     1
102
RTVSPropertyOp41
 70
     1
102
RTVSPropertyOp42
 70
     1
102
RTVSPropertyOp43
 70
     1
102
RTVSPropertyOp44
 70
     1
102
RTVSPropertyOp45
 70
     1
102
RTVSPropertyOp46
 70
     1
102
RTVSPropertyOp47
 70
     1
102
RTVSPropertyOp48
 70
     1
102
RTVSPropertyOp49
 70
     1
102
RTVSPropertyOp50
 70
     1
102
RTVSPropertyOp51
 70
     0
102
RTVSPropertyOp52
 70
     0
102
RTVSPropertyOp53
 70
     1
102
RTVSPropertyOp54
 70
     1
102
RTVSPropertyOp55
 70
     1
102
RTVSPropertyOp56
 70
     1
102
RTVSPropertyOp57
 70
     1
102
RTVSPost2010Prop28
280
     1
102
RTVSPost2010PropOp28
 70
     1
102
RTVSPost2010Prop29
280
     1
102
RTVSPost2010PropOp29
 70
     1
102
RTVSPost2010Prop30
280
     0
102
RTVSPost2010PropOp30
 70
     1
102
RTVSPost2010Prop31
280
     0
102
RTVSPost2010PropOp31
 70
     1
102
RTVSPost2010Prop32
280
     0
102
RTVSPost2010PropOp32
 70
     1
102
RTVSPost2010Prop33
280
     0
102
RTVSPost2010PropOp33
 70
     1
102
RTVSPost2010Prop34
280
     0
102
RTVSPost2010PropOp34
 70
     1
102
RTVSPost2010Prop35
280
     0
102
RTVSPost2010PropOp35
 70
     1
102
RTVSPost2010Prop36
280
     0
102
RTVSPost2010PropOp36
 70
     1
102
RTVSPost2010Prop37
 90
       50
102
RTVSPost2010PropOp37
 70
     1
102
RTVSPost2010Prop38
140
0.0
102
RTVSPost2010PropOp38
 70
     1
102
RTVSPost2010Prop39
140
1.0
102
RTVSPost2010PropOp39
 70
     1
102
RTVSPost2010Prop40
 90
        0
102
RTVSPost2010PropOp40
 70
     1
102
RTVSPost2010Prop41ColorIndex
 90
       18
102
RTVSPost2010Prop41ColorRGB
 90
        0
102
RTVSPost2010PropOp41
 70
     1
102
RTVSPost2010Prop42
 90
       50
102
RTVSPost2010PropOp42
 70
     1
102
RTVSPost2010Prop43
 90
        3
102
RTVSPost2010PropOp43
 70
     1
102
RTVSPost2010Prop44ColorIndex
 90
        5
102
RTVSPost2010Prop44ColorRGB
 90
      255
102
RTVSPost2010PropOp44
 70
     1
102
RTVSPost2010Prop45
280
     0
102
RTVSPost2010PropOp45
 70
     1
102
RTVSPost2010Prop46
 90
       50
102
RTVSPost2010PropOp46
 70
     1
102
RTVSPost2010Prop47
 90
       50
102
RTVSPost2010PropOp47
 70
     1
102
RTVSPost2010Prop48
 90
       50
102
RTVSPost2010PropOp48
 70
     1
102
RTVSPost2010Prop49
280
     0
102
RTVSPost2010PropOp49
 70
     1
102
RTVSPost2010Prop50
 90
       50
102
RTVSPost2010PropOp50
 70
     1
102
RTVSPost2010Prop51ColorIndex
 90
      256
102
RTVSPost2010Prop51ColorRGB
 90
-16777216
102
RTVSPost2010PropOp51
 70
     0
102
RTVSPost2010Prop52
140
1.0
102
RTVSPost2010PropOp52
 70
     0
102
RTVSPost2010Prop53
 90
        2
102
RTVSPost2010PropOp53
 70
     1
102
RTVSPost2010Prop54
  1
strokes_ogs.tif
102
RTVSPost2010PropOp54
 70
     1
102
RTVSPost2010Prop55
280
     0
102
RTVSPost2010PropOp55
 70
     1
102
RTVSPost2010Prop56
140
1.0
102
RTVSPost2010PropOp56
 70
     1
102
RTVSPost2010Prop57
140
1.0
102
RTVSPost2010PropOp57
 70
     1
  0
XRECORD
  5
373
102
{ACAD_REACTORS
330
372
102
}
330
372
100
AcDbXrecord
280
     1
102
RTVSPropertyOp0
 70
     1
102
RTVSPropertyOp1
 70
     1
102
RTVSPropertyOp2
 70
     1
102
RTVSPropertyOp3
 70
     1
102
RTVSPropertyOp4
 70
     1
102
RTVSPropertyOp5
 70
     1
102
RTVSPropertyOp6
 70
     1
102
RTVSPropertyOp7
 70
     1
102
RTVSPropertyOp8
 70
     1
102
RTVSPropertyOp9
 70
     1
102
RTVSPropertyOp10
 70
     1
102
RTVSPropertyOp11
 70
     1
102
RTVSPropertyOp12
 70
     1
102
RTVSPropertyOp13
 70
     1
102
RTVSPropertyOp14
 70
     1
102
RTVSPropertyOp15
 70
     1
102
RTVSPropertyOp16
 70
     1
102
RTVSPropertyOp17
 70
     1
102
RTVSPropertyOp18
 70
     1
102
RTVSPropertyOp19
 70
     1
102
RTVSPropertyOp20
 70
     1
102
RTVSPropertyOp21
 70
     1
102
RTVSPropertyOp22
 70
     1
102
RTVSPropertyOp23
 70
     1
102
RTVSPropertyOp24
 70
     1
102
RTVSPropertyOp25
 70
     1
102
RTVSPropertyOp26
 70
     1
102
RTVSPropertyOp27
 70
     1
102
RTVSPropertyOp28
 70
     1
102
RTVSPropertyOp29
 70
     1
102
RTVSPropertyOp30
 70
     1
102
RTVSPropertyOp31
 70
     1
102
RTVSPropertyOp32
 70
     1
102
RTVSPropertyOp33
 70
     1
102
RTVSPropertyOp34
 70
     1
102
RTVSPropertyOp35
 70
     1
102
RTVSPropertyOp36
 70
     1
102
RTVSPropertyOp37
 70
     1
102
RTVSPropertyOp38
 70
     1
102
RTVSPropertyOp39
 70
     1
102
RTVSPropertyOp40
 70
     1
102
RTVSPropertyOp41
 70
     1
102
RTVSPropertyOp42
 70
     1
102
RTVSPropertyOp43
 70
     1
102
RTVSPropertyOp44
 70
     1
102
RTVSPropertyOp45
 70
     1
102
RTVSPropertyOp46
 70
     1
102
RTVSPropertyOp47
 70
     1
102
RTVSPropertyOp48
 70
     1
102
RTVSPropertyOp49
 70
     1
102
RTVSPropertyOp50
 70
     1
102
RTVSPropertyOp51
 70
     0
102
RTVSPropertyOp52
 70
     0
102
RTVSPropertyOp53
 70
     1
102
RTVSPropertyOp54
 70
     1
102
RTVSPropertyOp55
 70
     1
102
RTVSPropertyOp56
 70
     1
102
RTVSPropertyOp57
 70
     1
102
RTVSPost2010Prop28
280
     0
102
RTVSPost2010PropOp28
 70
     1
102
RTVSPost2010Prop29
280
     1
102
RTVSPost2010PropOp29
 70
     1
102
RTVSPost2010Prop30
280
     1
102
RTVSPost2010PropOp30
 70
     1
102
RTVSPost2010Prop31
280
     0
102
RTVSPost2010PropOp31
 70
     1
102
RTVSPost2010Prop32
280
     0
102
RTVSPost2010PropOp32
 70
     1
102
RTVSPost2010Prop33
280
     0
102
RTVSPost2010PropOp33
 70
     1
102
RTVSPost2010Prop34
280
     0
102
RTVSPost2010PropOp34
 70
     1
102
RTVSPost2010Prop35
280
     0
102
RTVSPost2010PropOp35
 70
     1
102
RTVSPost2010Prop36
280
     0
102
RTVSPost2010PropOp36
 70
     1
102
RTVSPost2010Prop37
 90
       50
102
RTVSPost2010PropOp37
 70
     1
102
RTVSPost2010Prop38
140
0.0
102
RTVSPost2010PropOp38
 70
     1
102
RTVSPost2010Prop39
140
1.0
102
RTVSPost2010PropOp39
 70
     1
102
RTVSPost2010Prop40
 90
        0
102
RTVSPost2010PropOp40
 70
     1
102
RTVSPost2010Prop41ColorIndex
 90
       18
102
RTVSPost2010Prop41ColorRGB
 90
        0
102
RTVSPost2010PropOp41
 70
     1
102
RTVSPost2010Prop42
 90
       50
102
RTVSPost2010PropOp42
 70
     1
102
RTVSPost2010Prop43
 90
        3
102
RTVSPost2010PropOp43
 70
     1
102
RTVSPost2010Prop44ColorIndex
 90
        5
102
RTVSPost2010Prop44ColorRGB
 90
      255
102
RTVSPost2010PropOp44
 70
     1
102
RTVSPost2010Prop45
280
     0
102
RTVSPost2010PropOp45
 70
     1
102
RTVSPost2010Prop46
 90
       50
102
RTVSPost2010PropOp46
 70
     1
102
RTVSPost2010Prop47
 90
       50
102
RTVSPost2010PropOp47
 70
     1
102
RTVSPost2010Prop48
 90
       50
102
RTVSPost2010PropOp48
 70
     1
102
RTVSPost2010Prop49
280
     0
102
RTVSPost2010PropOp49
 70
     1
102
RTVSPost2010Prop50
 90
       50
102
RTVSPost2010PropOp50
 70
     1
102
RTVSPost2010Prop51ColorIndex
 90
      256
102
RTVSPost2010Prop51ColorRGB
 90
-16777216
102
RTVSPost2010PropOp51
 70
     0
102
RTVSPost2010Prop52
140
1.0
102
RTVSPost2010PropOp52
 70
     0
102
RTVSPost2010Prop53
 90
        2
102
RTVSPost2010PropOp53
 70
     1
102
RTVSPost2010Prop54
  1
strokes_ogs.tif
102
RTVSPost2010PropOp54
 70
     1
102
RTVSPost2010Prop55
280
     0
102
RTVSPost2010PropOp55
 70
     1
102
RTVSPost2010Prop56
140
1.0
102
RTVSPost2010PropOp56
 70
     1
102
RTVSPost2010Prop57
140
1.0
102
RTVSPost2010PropOp57
 70
     1
  0
XRECORD
  5
37B
102
{ACAD_REACTORS
330
37A
102
}
330
37A
100
AcDbXrecord
280
     1
102
RTVSPropertyOp0
 70
     1
102
RTVSPropertyOp1
 70
     1
102
RTVSPropertyOp2
 70
     1
102
RTVSPropertyOp3
 70
     1
102
RTVSPropertyOp4
 70
     1
102
RTVSPropertyOp5
 70
     1
102
RTVSPropertyOp6
 70
     1
102
RTVSPropertyOp7
 70
     1
102
RTVSPropertyOp8
 70
     1
102
RTVSPropertyOp9
 70
     1
102
RTVSPropertyOp10
 70
     1
102
RTVSPropertyOp11
 70
     1
102
RTVSPropertyOp12
 70
     1
102
RTVSPropertyOp13
 70
     1
102
RTVSPropertyOp14
 70
     1
102
RTVSPropertyOp15
 70
     1
102
RTVSPropertyOp16
 70
     1
102
RTVSPropertyOp17
 70
     1
102
RTVSPropertyOp18
 70
     1
102
RTVSPropertyOp19
 70
     1
102
RTVSPropertyOp20
 70
     1
102
RTVSPropertyOp21
 70
     1
102
RTVSPropertyOp22
 70
     1
102
RTVSPropertyOp23
 70
     1
102
RTVSPropertyOp24
 70
     1
102
RTVSPropertyOp25
 70
     1
102
RTVSPropertyOp26
 70
     1
102
RTVSPropertyOp27
 70
     1
102
RTVSPropertyOp28
 70
     1
102
RTVSPropertyOp29
 70
     1
102
RTVSPropertyOp30
 70
     1
102
RTVSPropertyOp31
 70
     1
102
RTVSPropertyOp32
 70
     1
102
RTVSPropertyOp33
 70
     1
102
RTVSPropertyOp34
 70
     1
102
RTVSPropertyOp35
 70
     1
102
RTVSPropertyOp36
 70
     1
102
RTVSPropertyOp37
 70
     1
102
RTVSPropertyOp38
 70
     1
102
RTVSPropertyOp39
 70
     1
102
RTVSPropertyOp40
 70
     1
102
RTVSPropertyOp41
 70
     1
102
RTVSPropertyOp42
 70
     1
102
RTVSPropertyOp43
 70
     1
102
RTVSPropertyOp44
 70
     1
102
RTVSPropertyOp45
 70
     1
102
RTVSPropertyOp46
 70
     1
102
RTVSPropertyOp47
 70
     1
102
RTVSPropertyOp48
 70
     1
102
RTVSPropertyOp49
 70
     1
102
RTVSPropertyOp50
 70
     1
102
RTVSPropertyOp51
 70
     0
102
RTVSPropertyOp52
 70
     0
102
RTVSPropertyOp53
 70
     1
102
RTVSPropertyOp54
 70
     1
102
RTVSPropertyOp55
 70
     1
102
RTVSPropertyOp56
 70
     1
102
RTVSPropertyOp57
 70
     1
102
RTVSPost2010Prop28
280
     0
102
RTVSPost2010PropOp28
 70
     1
102
RTVSPost2010Prop29
280
     1
102
RTVSPost2010PropOp29
 70
     1
102
RTVSPost2010Prop30
280
     1
102
RTVSPost2010PropOp30
 70
     1
102
RTVSPost2010Prop31
280
     0
102
RTVSPost2010PropOp31
 70
     1
102
RTVSPost2010Prop32
280
     0
102
RTVSPost2010PropOp32
 70
     1
102
RTVSPost2010Prop33
280
     0
102
RTVSPost2010PropOp33
 70
     1
102
RTVSPost2010Prop34
280
     0
102
RTVSPost2010PropOp34
 70
     1
102
RTVSPost2010Prop35
280
     0
102
RTVSPost2010PropOp35
 70
     1
102
RTVSPost2010Prop36
280
     0
102
RTVSPost2010PropOp36
 70
     1
102
RTVSPost2010Prop37
 90
       50
102
RTVSPost2010PropOp37
 70
     1
102
RTVSPost2010Prop38
140
0.0
102
RTVSPost2010PropOp38
 70
     1
102
RTVSPost2010Prop39
140
1.0
102
RTVSPost2010PropOp39
 70
     1
102
RTVSPost2010Prop40
 90
        0
102
RTVSPost2010PropOp40
 70
     1
102
RTVSPost2010Prop41ColorIndex
 90
       18
102
RTVSPost2010Prop41ColorRGB
 90
        0
102
RTVSPost2010PropOp41
 70
     1
102
RTVSPost2010Prop42
 90
       50
102
RTVSPost2010PropOp42
 70
     1
102
RTVSPost2010Prop43
 90
        3
102
RTVSPost2010PropOp43
 70
     1
102
RTVSPost2010Prop44ColorIndex
 90
        5
102
RTVSPost2010Prop44ColorRGB
 90
      255
102
RTVSPost2010PropOp44
 70
     1
102
RTVSPost2010Prop45
280
     0
102
RTVSPost2010PropOp45
 70
     1
102
RTVSPost2010Prop46
 90
       50
102
RTVSPost2010PropOp46
 70
     1
102
RTVSPost2010Prop47
 90
       50
102
RTVSPost2010PropOp47
 70
     1
102
RTVSPost2010Prop48
 90
       50
102
RTVSPost2010PropOp48
 70
     1
102
RTVSPost2010Prop49
280
     0
102
RTVSPost2010PropOp49
 70
     1
102
RTVSPost2010Prop50
 90
       50
102
RTVSPost2010PropOp50
 70
     1
102
RTVSPost2010Prop51ColorIndex
 90
      256
102
RTVSPost2010Prop51ColorRGB
 90
-16777216
102
RTVSPost2010PropOp51
 70
     0
102
RTVSPost2010Prop52
140
1.0
102
RTVSPost2010PropOp52
 70
     0
102
RTVSPost2010Prop53
 90
        2
102
RTVSPost2010PropOp53
 70
     1
102
RTVSPost2010Prop54
  1
strokes_ogs.tif
102
RTVSPost2010PropOp54
 70
     1
102
RTVSPost2010Prop55
280
     0
102
RTVSPost2010PropOp55
 70
     1
102
RTVSPost2010Prop56
140
1.0
102
RTVSPost2010PropOp56
 70
     1
102
RTVSPost2010Prop57
140
1.0
102
RTVSPost2010PropOp57
 70
     1
  0
XRECORD
  5
383
102
{ACAD_REACTORS
330
382
102
}
330
382
100
AcDbXrecord
280
     1
102
RTVSPropertyOp0
 70
     1
102
RTVSPropertyOp1
 70
     1
102
RTVSPropertyOp2
 70
     1
102
RTVSPropertyOp3
 70
     1
102
RTVSPropertyOp4
 70
     1
102
RTVSPropertyOp5
 70
     1
102
RTVSPropertyOp6
 70
     1
102
RTVSPropertyOp7
 70
     1
102
RTVSPropertyOp8
 70
     1
102
RTVSPropertyOp9
 70
     1
102
RTVSPropertyOp10
 70
     1
102
RTVSPropertyOp11
 70
     1
102
RTVSPropertyOp12
 70
     1
102
RTVSPropertyOp13
 70
     1
102
RTVSPropertyOp14
 70
     1
102
RTVSPropertyOp15
 70
     1
102
RTVSPropertyOp16
 70
     1
102
RTVSPropertyOp17
 70
     1
102
RTVSPropertyOp18
 70
     1
102
RTVSPropertyOp19
 70
     1
102
RTVSPropertyOp20
 70
     1
102
RTVSPropertyOp21
 70
     1
102
RTVSPropertyOp22
 70
     1
102
RTVSPropertyOp23
 70
     1
102
RTVSPropertyOp24
 70
     1
102
RTVSPropertyOp25
 70
     1
102
RTVSPropertyOp26
 70
     1
102
RTVSPropertyOp27
 70
     1
102
RTVSPropertyOp28
 70
     1
102
RTVSPropertyOp29
 70
     1
102
RTVSPropertyOp30
 70
     1
102
RTVSPropertyOp31
 70
     1
102
RTVSPropertyOp32
 70
     1
102
RTVSPropertyOp33
 70
     1
102
RTVSPropertyOp34
 70
     1
102
RTVSPropertyOp35
 70
     1
102
RTVSPropertyOp36
 70
     1
102
RTVSPropertyOp37
 70
     1
102
RTVSPropertyOp38
 70
     1
102
RTVSPropertyOp39
 70
     1
102
RTVSPropertyOp40
 70
     1
102
RTVSPropertyOp41
 70
     1
102
RTVSPropertyOp42
 70
     1
102
RTVSPropertyOp43
 70
     1
102
RTVSPropertyOp44
 70
     1
102
RTVSPropertyOp45
 70
     1
102
RTVSPropertyOp46
 70
     1
102
RTVSPropertyOp47
 70
     1
102
RTVSPropertyOp48
 70
     1
102
RTVSPropertyOp49
 70
     1
102
RTVSPropertyOp50
 70
     1
102
RTVSPropertyOp51
 70
     0
102
RTVSPropertyOp52
 70
     0
102
RTVSPropertyOp53
 70
     1
102
RTVSPropertyOp54
 70
     1
102
RTVSPropertyOp55
 70
     1
102
RTVSPropertyOp56
 70
     1
102
RTVSPropertyOp57
 70
     1
102
RTVSPost2010Prop28
280
     0
102
RTVSPost2010PropOp28
 70
     1
102
RTVSPost2010Prop29
280
     1
102
RTVSPost2010PropOp29
 70
     1
102
RTVSPost2010Prop30
280
     1
102
RTVSPost2010PropOp30
 70
     1
102
RTVSPost2010Prop31
280
     0
102
RTVSPost2010PropOp31
 70
     1
102
RTVSPost2010Prop32
280
     0
102
RTVSPost2010PropOp32
 70
     1
102
RTVSPost2010Prop33
280
     0
102
RTVSPost2010PropOp33
 70
     1
102
RTVSPost2010Prop34
280
     0
102
RTVSPost2010PropOp34
 70
     1
102
RTVSPost2010Prop35
280
     0
102
RTVSPost2010PropOp35
 70
     1
102
RTVSPost2010Prop36
280
     0
102
RTVSPost2010PropOp36
 70
     1
102
RTVSPost2010Prop37
 90
       50
102
RTVSPost2010PropOp37
 70
     1
102
RTVSPost2010Prop38
140
0.0
102
RTVSPost2010PropOp38
 70
     1
102
RTVSPost2010Prop39
140
1.0
102
RTVSPost2010PropOp39
 70
     1
102
RTVSPost2010Prop40
 90
        0
102
RTVSPost2010PropOp40
 70
     1
102
RTVSPost2010Prop41ColorIndex
 90
       18
102
RTVSPost2010Prop41ColorRGB
 90
        0
102
RTVSPost2010PropOp41
 70
     1
102
RTVSPost2010Prop42
 90
       50
102
RTVSPost2010PropOp42
 70
     1
102
RTVSPost2010Prop43
 90
        3
102
RTVSPost2010PropOp43
 70
     1
102
RTVSPost2010Prop44ColorIndex
 90
        5
102
RTVSPost2010Prop44ColorRGB
 90
      255
102
RTVSPost2010PropOp44
 70
     1
102
RTVSPost2010Prop45
280
     0
102
RTVSPost2010PropOp45
 70
     1
102
RTVSPost2010Prop46
 90
       50
102
RTVSPost2010PropOp46
 70
     1
102
RTVSPost2010Prop47
 90
       50
102
RTVSPost2010PropOp47
 70
     1
102
RTVSPost2010Prop48
 90
       50
102
RTVSPost2010PropOp48
 70
     1
102
RTVSPost2010Prop49
280
     0
102
RTVSPost2010PropOp49
 70
     1
102
RTVSPost2010Prop50
 90
       50
102
RTVSPost2010PropOp50
 70
     1
102
RTVSPost2010Prop51ColorIndex
 90
      256
102
RTVSPost2010Prop51ColorRGB
 90
-16777216
102
RTVSPost2010PropOp51
 70
     0
102
RTVSPost2010Prop52
140
1.0
102
RTVSPost2010PropOp52
 70
     0
102
RTVSPost2010Prop53
 90
        2
102
RTVSPost2010PropOp53
 70
     1
102
RTVSPost2010Prop54
  1
strokes_ogs.tif
102
RTVSPost2010PropOp54
 70
     1
102
RTVSPost2010Prop55
280
     0
102
RTVSPost2010PropOp55
 70
     1
102
RTVSPost2010Prop56
140
1.0
102
RTVSPost2010PropOp56
 70
     1
102
RTVSPost2010Prop57
140
1.0
102
RTVSPost2010PropOp57
 70
     1
  0
XRECORD
  5
377
102
{ACAD_REACTORS
330
376
102
}
330
376
100
AcDbXrecord
280
     1
102
RTVSPropertyOp0
 70
     1
102
RTVSPropertyOp1
 70
     1
102
RTVSPropertyOp2
 70
     1
102
RTVSPropertyOp3
 70
     1
102
RTVSPropertyOp4
 70
     1
102
RTVSPropertyOp5
 70
     1
102
RTVSPropertyOp6
 70
     1
102
RTVSPropertyOp7
 70
     1
102
RTVSPropertyOp8
 70
     1
102
RTVSPropertyOp9
 70
     1
102
RTVSPropertyOp10
 70
     1
102
RTVSPropertyOp11
 70
     1
102
RTVSPropertyOp12
 70
     1
102
RTVSPropertyOp13
 70
     1
102
RTVSPropertyOp14
 70
     1
102
RTVSPropertyOp15
 70
     1
102
RTVSPropertyOp16
 70
     1
102
RTVSPropertyOp17
 70
     1
102
RTVSPropertyOp18
 70
     1
102
RTVSPropertyOp19
 70
     1
102
RTVSPropertyOp20
 70
     1
102
RTVSPropertyOp21
 70
     1
102
RTVSPropertyOp22
 70
     1
102
RTVSPropertyOp23
 70
     1
102
RTVSPropertyOp24
 70
     1
102
RTVSPropertyOp25
 70
     1
102
RTVSPropertyOp26
 70
     1
102
RTVSPropertyOp27
 70
     1
102
RTVSPropertyOp28
 70
     1
102
RTVSPropertyOp29
 70
     1
102
RTVSPropertyOp30
 70
     1
102
RTVSPropertyOp31
 70
     1
102
RTVSPropertyOp32
 70
     1
102
RTVSPropertyOp33
 70
     1
102
RTVSPropertyOp34
 70
     1
102
RTVSPropertyOp35
 70
     1
102
RTVSPropertyOp36
 70
     1
102
RTVSPropertyOp37
 70
     1
102
RTVSPropertyOp38
 70
     1
102
RTVSPropertyOp39
 70
     1
102
RTVSPropertyOp40
 70
     1
102
RTVSPropertyOp41
 70
     1
102
RTVSPropertyOp42
 70
     1
102
RTVSPropertyOp43
 70
     1
102
RTVSPropertyOp44
 70
     1
102
RTVSPropertyOp45
 70
     1
102
RTVSPropertyOp46
 70
     1
102
RTVSPropertyOp47
 70
     1
102
RTVSPropertyOp48
 70
     1
102
RTVSPropertyOp49
 70
     1
102
RTVSPropertyOp50
 70
     1
102
RTVSPropertyOp51
 70
     0
102
RTVSPropertyOp52
 70
     0
102
RTVSPropertyOp53
 70
     1
102
RTVSPropertyOp54
 70
     1
102
RTVSPropertyOp55
 70
     1
102
RTVSPropertyOp56
 70
     1
102
RTVSPropertyOp57
 70
     1
102
RTVSPost2010Prop28
280
     0
102
RTVSPost2010PropOp28
 70
     1
102
RTVSPost2010Prop29
280
     1
102
RTVSPost2010PropOp29
 70
     1
102
RTVSPost2010Prop30
280
     1
102
RTVSPost2010PropOp30
 70
     1
102
RTVSPost2010Prop31
280
     0
102
RTVSPost2010PropOp31
 70
     1
102
RTVSPost2010Prop32
280
     0
102
RTVSPost2010PropOp32
 70
     1
102
RTVSPost2010Prop33
280
     0
102
RTVSPost2010PropOp33
 70
     1
102
RTVSPost2010Prop34
280
     0
102
RTVSPost2010PropOp34
 70
     1
102
RTVSPost2010Prop35
280
     0
102
RTVSPost2010PropOp35
 70
     1
102
RTVSPost2010Prop36
280
     0
102
RTVSPost2010PropOp36
 70
     1
102
RTVSPost2010Prop37
 90
       50
102
RTVSPost2010PropOp37
 70
     1
102
RTVSPost2010Prop38
140
0.0
102
RTVSPost2010PropOp38
 70
     1
102
RTVSPost2010Prop39
140
1.0
102
RTVSPost2010PropOp39
 70
     1
102
RTVSPost2010Prop40
 90
        0
102
RTVSPost2010PropOp40
 70
     1
102
RTVSPost2010Prop41ColorIndex
 90
       18
102
RTVSPost2010Prop41ColorRGB
 90
        0
102
RTVSPost2010PropOp41
 70
     1
102
RTVSPost2010Prop42
 90
       50
102
RTVSPost2010PropOp42
 70
     1
102
RTVSPost2010Prop43
 90
        3
102
RTVSPost2010PropOp43
 70
     1
102
RTVSPost2010Prop44ColorIndex
 90
        5
102
RTVSPost2010Prop44ColorRGB
 90
      255
102
RTVSPost2010PropOp44
 70
     1
102
RTVSPost2010Prop45
280
     0
102
RTVSPost2010PropOp45
 70
     1
102
RTVSPost2010Prop46
 90
       50
102
RTVSPost2010PropOp46
 70
     1
102
RTVSPost2010Prop47
 90
       50
102
RTVSPost2010PropOp47
 70
     1
102
RTVSPost2010Prop48
 90
       50
102
RTVSPost2010PropOp48
 70
     1
102
RTVSPost2010Prop49
280
     0
102
RTVSPost2010PropOp49
 70
     1
102
RTVSPost2010Prop50
 90
       50
102
RTVSPost2010PropOp50
 70
     1
102
RTVSPost2010Prop51ColorIndex
 90
      256
102
RTVSPost2010Prop51ColorRGB
 90
-16777216
102
RTVSPost2010PropOp51
 70
     0
102
RTVSPost2010Prop52
140
1.0
102
RTVSPost2010PropOp52
 70
     0
102
RTVSPost2010Prop53
 90
        2
102
RTVSPost2010PropOp53
 70
     1
102
RTVSPost2010Prop54
  1
strokes_ogs.tif
102
RTVSPost2010PropOp54
 70
     1
102
RTVSPost2010Prop55
280
     0
102
RTVSPost2010PropOp55
 70
     1
102
RTVSPost2010Prop56
140
1.0
102
RTVSPost2010PropOp56
 70
     1
102
RTVSPost2010Prop57
140
1.0
102
RTVSPost2010PropOp57
 70
     1
  0
XRECORD
  5
379
102
{ACAD_REACTORS
330
378
102
}
330
378
100
AcDbXrecord
280
     1
102
RTVSPropertyOp0
 70
     1
102
RTVSPropertyOp1
 70
     1
102
RTVSPropertyOp2
 70
     1
102
RTVSPropertyOp3
 70
     1
102
RTVSPropertyOp4
 70
     1
102
RTVSPropertyOp5
 70
     1
102
RTVSPropertyOp6
 70
     1
102
RTVSPropertyOp7
 70
     1
102
RTVSPropertyOp8
 70
     1
102
RTVSPropertyOp9
 70
     1
102
RTVSPropertyOp10
 70
     1
102
RTVSPropertyOp11
 70
     1
102
RTVSPropertyOp12
 70
     1
102
RTVSPropertyOp13
 70
     1
102
RTVSPropertyOp14
 70
     1
102
RTVSPropertyOp15
 70
     1
102
RTVSPropertyOp16
 70
     1
102
RTVSPropertyOp17
 70
     1
102
RTVSPropertyOp18
 70
     1
102
RTVSPropertyOp19
 70
     1
102
RTVSPropertyOp20
 70
     1
102
RTVSPropertyOp21
 70
     1
102
RTVSPropertyOp22
 70
     1
102
RTVSPropertyOp23
 70
     1
102
RTVSPropertyOp24
 70
     1
102
RTVSPropertyOp25
 70
     1
102
RTVSPropertyOp26
 70
     1
102
RTVSPropertyOp27
 70
     1
102
RTVSPropertyOp28
 70
     1
102
RTVSPropertyOp29
 70
     1
102
RTVSPropertyOp30
 70
     1
102
RTVSPropertyOp31
 70
     1
102
RTVSPropertyOp32
 70
     1
102
RTVSPropertyOp33
 70
     1
102
RTVSPropertyOp34
 70
     1
102
RTVSPropertyOp35
 70
     1
102
RTVSPropertyOp36
 70
     1
102
RTVSPropertyOp37
 70
     1
102
RTVSPropertyOp38
 70
     1
102
RTVSPropertyOp39
 70
     1
102
RTVSPropertyOp40
 70
     1
102
RTVSPropertyOp41
 70
     1
102
RTVSPropertyOp42
 70
     1
102
RTVSPropertyOp43
 70
     1
102
RTVSPropertyOp44
 70
     1
102
RTVSPropertyOp45
 70
     1
102
RTVSPropertyOp46
 70
     1
102
RTVSPropertyOp47
 70
     1
102
RTVSPropertyOp48
 70
     1
102
RTVSPropertyOp49
 70
     1
102
RTVSPropertyOp50
 70
     1
102
RTVSPropertyOp51
 70
     0
102
RTVSPropertyOp52
 70
     0
102
RTVSPropertyOp53
 70
     1
102
RTVSPropertyOp54
 70
     1
102
RTVSPropertyOp55
 70
     1
102
RTVSPropertyOp56
 70
     1
102
RTVSPropertyOp57
 70
     1
102
RTVSPost2010Prop28
280
     0
102
RTVSPost2010PropOp28
 70
     1
102
RTVSPost2010Prop29
280
     1
102
RTVSPost2010PropOp29
 70
     1
102
RTVSPost2010Prop30
280
     1
102
RTVSPost2010PropOp30
 70
     1
102
RTVSPost2010Prop31
280
     0
102
RTVSPost2010PropOp31
 70
     1
102
RTVSPost2010Prop32
280
     0
102
RTVSPost2010PropOp32
 70
     1
102
RTVSPost2010Prop33
280
     0
102
RTVSPost2010PropOp33
 70
     1
102
RTVSPost2010Prop34
280
     0
102
RTVSPost2010PropOp34
 70
     1
102
RTVSPost2010Prop35
280
     0
102
RTVSPost2010PropOp35
 70
     1
102
RTVSPost2010Prop36
280
     0
102
RTVSPost2010PropOp36
 70
     1
102
RTVSPost2010Prop37
 90
       50
102
RTVSPost2010PropOp37
 70
     1
102
RTVSPost2010Prop38
140
0.0
102
RTVSPost2010PropOp38
 70
     1
102
RTVSPost2010Prop39
140
1.0
102
RTVSPost2010PropOp39
 70
     1
102
RTVSPost2010Prop40
 90
        0
102
RTVSPost2010PropOp40
 70
     1
102
RTVSPost2010Prop41ColorIndex
 90
       18
102
RTVSPost2010Prop41ColorRGB
 90
        0
102
RTVSPost2010PropOp41
 70
     1
102
RTVSPost2010Prop42
 90
       50
102
RTVSPost2010PropOp42
 70
     1
102
RTVSPost2010Prop43
 90
        3
102
RTVSPost2010PropOp43
 70
     1
102
RTVSPost2010Prop44ColorIndex
 90
        5
102
RTVSPost2010Prop44ColorRGB
 90
      255
102
RTVSPost2010PropOp44
 70
     1
102
RTVSPost2010Prop45
280
     0
102
RTVSPost2010PropOp45
 70
     1
102
RTVSPost2010Prop46
 90
       50
102
RTVSPost2010PropOp46
 70
     1
102
RTVSPost2010Prop47
 90
       50
102
RTVSPost2010PropOp47
 70
     1
102
RTVSPost2010Prop48
 90
       50
102
RTVSPost2010PropOp48
 70
     1
102
RTVSPost2010Prop49
280
     0
102
RTVSPost2010PropOp49
 70
     1
102
RTVSPost2010Prop50
 90
       50
102
RTVSPost2010PropOp50
 70
     1
102
RTVSPost2010Prop51ColorIndex
 90
      256
102
RTVSPost2010Prop51ColorRGB
 90
-16777216
102
RTVSPost2010PropOp51
 70
     0
102
RTVSPost2010Prop52
140
1.0
102
RTVSPost2010PropOp52
 70
     0
102
RTVSPost2010Prop53
 90
        2
102
RTVSPost2010PropOp53
 70
     1
102
RTVSPost2010Prop54
  1
strokes_ogs.tif
102
RTVSPost2010PropOp54
 70
     1
102
RTVSPost2010Prop55
280
     0
102
RTVSPost2010PropOp55
 70
     1
102
RTVSPost2010Prop56
140
1.0
102
RTVSPost2010PropOp56
 70
     1
102
RTVSPost2010Prop57
140
1.0
102
RTVSPost2010PropOp57
 70
     1
  0
XRECORD
  5
389
102
{ACAD_REACTORS
330
388
102
}
330
388
100
AcDbXrecord
280
     1
102
RTVSPropertyOp0
 70
     0
102
RTVSPropertyOp1
 70
     0
102
RTVSPropertyOp2
 70
     0
102
RTVSPropertyOp3
 70
     0
102
RTVSPropertyOp4
 70
     0
102
RTVSPropertyOp5
 70
     0
102
RTVSPropertyOp6
 70
     0
102
RTVSPropertyOp7
 70
     0
102
RTVSPropertyOp8
 70
     0
102
RTVSPropertyOp9
 70
     0
102
RTVSPropertyOp10
 70
     0
102
RTVSPropertyOp11
 70
     0
102
RTVSPropertyOp12
 70
     0
102
RTVSPropertyOp13
 70
     0
102
RTVSPropertyOp14
 70
     2
102
RTVSPropertyOp15
 70
     0
102
RTVSPropertyOp16
 70
     0
102
RTVSPropertyOp17
 70
     0
102
RTVSPropertyOp18
 70
     0
102
RTVSPropertyOp19
 70
     0
102
RTVSPropertyOp20
 70
     0
102
RTVSPropertyOp21
 70
     0
102
RTVSPropertyOp22
 70
     0
102
RTVSPropertyOp23
 70
     0
102
RTVSPropertyOp24
 70
     0
102
RTVSPropertyOp25
 70
     0
102
RTVSPropertyOp26
 70
     0
102
RTVSPropertyOp27
 70
     0
102
RTVSPropertyOp28
 70
     0
102
RTVSPropertyOp29
 70
     0
102
RTVSPropertyOp30
 70
     0
102
RTVSPropertyOp31
 70
     0
102
RTVSPropertyOp32
 70
     0
102
RTVSPropertyOp33
 70
     0
102
RTVSPropertyOp34
 70
     0
102
RTVSPropertyOp35
 70
     0
102
RTVSPropertyOp36
 70
     0
102
RTVSPropertyOp37
 70
     0
102
RTVSPropertyOp38
 70
     0
102
RTVSPropertyOp39
 70
     0
102
RTVSPropertyOp40
 70
     0
102
RTVSPropertyOp41
 70
     0
102
RTVSPropertyOp42
 70
     0
102
RTVSPropertyOp43
 70
     0
102
RTVSPropertyOp44
 70
     0
102
RTVSPropertyOp45
 70
     0
102
RTVSPropertyOp46
 70
     0
102
RTVSPropertyOp47
 70
     0
102
RTVSPropertyOp48
 70
     0
102
RTVSPropertyOp49
 70
     0
102
RTVSPropertyOp50
 70
     0
102
RTVSPropertyOp51
 70
     0
102
RTVSPropertyOp52
 70
     0
102
RTVSPropertyOp53
 70
     0
102
RTVSPropertyOp54
 70
     0
102
RTVSPropertyOp55
 70
     0
102
RTVSPropertyOp56
 70
     0
102
RTVSPropertyOp57
 70
     0
102
RTVSPost2010Prop28
280
     0
102
RTVSPost2010PropOp28
 70
     0
102
RTVSPost2010Prop29
280
     1
102
RTVSPost2010PropOp29
 70
     0
102
RTVSPost2010Prop30
280
     1
102
RTVSPost2010PropOp30
 70
     0
102
RTVSPost2010Prop31
280
     0
102
RTVSPost2010PropOp31
 70
     0
102
RTVSPost2010Prop32
280
     0
102
RTVSPost2010PropOp32
 70
     0
102
RTVSPost2010Prop33
280
     0
102
RTVSPost2010PropOp33
 70
     0
102
RTVSPost2010Prop34
280
     0
102
RTVSPost2010PropOp34
 70
     0
102
RTVSPost2010Prop35
280
     0
102
RTVSPost2010PropOp35
 70
     0
102
RTVSPost2010Prop36
280
     0
102
RTVSPost2010PropOp36
 70
     0
102
RTVSPost2010Prop37
 90
       50
102
RTVSPost2010PropOp37
 70
     0
102
RTVSPost2010Prop38
140
0.0
102
RTVSPost2010PropOp38
 70
     0
102
RTVSPost2010Prop39
140
1.0
102
RTVSPost2010PropOp39
 70
     0
102
RTVSPost2010Prop40
 90
        0
102
RTVSPost2010PropOp40
 70
     0
102
RTVSPost2010Prop41ColorIndex
 90
       18
102
RTVSPost2010Prop41ColorRGB
 90
        0
102
RTVSPost2010PropOp41
 70
     0
102
RTVSPost2010Prop42
 90
       50
102
RTVSPost2010PropOp42
 70
     0
102
RTVSPost2010Prop43
 90
        3
102
RTVSPost2010PropOp43
 70
     0
102
RTVSPost2010Prop44ColorIndex
 90
        5
102
RTVSPost2010Prop44ColorRGB
 90
      255
102
RTVSPost2010PropOp44
 70
     0
102
RTVSPost2010Prop45
280
     0
102
RTVSPost2010PropOp45
 70
     0
102
RTVSPost2010Prop46
 90
       50
102
RTVSPost2010PropOp46
 70
     0
102
RTVSPost2010Prop47
 90
       50
102
RTVSPost2010PropOp47
 70
     0
102
RTVSPost2010Prop48
 90
       50
102
RTVSPost2010PropOp48
 70
     0
102
RTVSPost2010Prop49
280
     0
102
RTVSPost2010PropOp49
 70
     0
102
RTVSPost2010Prop50
 90
       50
102
RTVSPost2010PropOp50
 70
     0
102
RTVSPost2010Prop51ColorIndex
 90
      256
102
RTVSPost2010Prop51ColorRGB
 90
-16777216
102
RTVSPost2010PropOp51
 70
     0
102
RTVSPost2010Prop52
140
1.0
102
RTVSPost2010PropOp52
 70
     0
102
RTVSPost2010Prop53
 90
        2
102
RTVSPost2010PropOp53
 70
     0
102
RTVSPost2010Prop54
  1
strokes_ogs.tif
102
RTVSPost2010PropOp54
 70
     0
102
RTVSPost2010Prop55
280
     0
102
RTVSPost2010PropOp55
 70
     0
102
RTVSPost2010Prop56
140
1.0
102
RTVSPost2010PropOp56
 70
     0
102
RTVSPost2010Prop57
140
1.0
102
RTVSPost2010PropOp57
 70
     0
  0
XRECORD
  5
381
102
{ACAD_REACTORS
330
380
102
}
330
380
100
AcDbXrecord
280
     1
102
RTVSPropertyOp0
 70
     1
102
RTVSPropertyOp1
 70
     1
102
RTVSPropertyOp2
 70
     1
102
RTVSPropertyOp3
 70
     1
102
RTVSPropertyOp4
 70
     1
102
RTVSPropertyOp5
 70
     1
102
RTVSPropertyOp6
 70
     1
102
RTVSPropertyOp7
 70
     1
102
RTVSPropertyOp8
 70
     1
102
RTVSPropertyOp9
 70
     1
102
RTVSPropertyOp10
 70
     1
102
RTVSPropertyOp11
 70
     1
102
RTVSPropertyOp12
 70
     1
102
RTVSPropertyOp13
 70
     1
102
RTVSPropertyOp14
 70
     1
102
RTVSPropertyOp15
 70
     1
102
RTVSPropertyOp16
 70
     1
102
RTVSPropertyOp17
 70
     1
102
RTVSPropertyOp18
 70
     1
102
RTVSPropertyOp19
 70
     1
102
RTVSPropertyOp20
 70
     1
102
RTVSPropertyOp21
 70
     1
102
RTVSPropertyOp22
 70
     1
102
RTVSPropertyOp23
 70
     1
102
RTVSPropertyOp24
 70
     1
102
RTVSPropertyOp25
 70
     1
102
RTVSPropertyOp26
 70
     1
102
RTVSPropertyOp27
 70
     1
102
RTVSPropertyOp28
 70
     1
102
RTVSPropertyOp29
 70
     1
102
RTVSPropertyOp30
 70
     1
102
RTVSPropertyOp31
 70
     1
102
RTVSPropertyOp32
 70
     1
102
RTVSPropertyOp33
 70
     1
102
RTVSPropertyOp34
 70
     1
102
RTVSPropertyOp35
 70
     1
102
RTVSPropertyOp36
 70
     1
102
RTVSPropertyOp37
 70
     1
102
RTVSPropertyOp38
 70
     1
102
RTVSPropertyOp39
 70
     1
102
RTVSPropertyOp40
 70
     1
102
RTVSPropertyOp41
 70
     1
102
RTVSPropertyOp42
 70
     1
102
RTVSPropertyOp43
 70
     1
102
RTVSPropertyOp44
 70
     1
102
RTVSPropertyOp45
 70
     1
102
RTVSPropertyOp46
 70
     1
102
RTVSPropertyOp47
 70
     1
102
RTVSPropertyOp48
 70
     1
102
RTVSPropertyOp49
 70
     1
102
RTVSPropertyOp50
 70
     1
102
RTVSPropertyOp51
 70
     0
102
RTVSPropertyOp52
 70
     0
102
RTVSPropertyOp53
 70
     1
102
RTVSPropertyOp54
 70
     1
102
RTVSPropertyOp55
 70
     1
102
RTVSPropertyOp56
 70
     1
102
RTVSPropertyOp57
 70
     1
102
RTVSPost2010Prop28
280
     0
102
RTVSPost2010PropOp28
 70
     1
102
RTVSPost2010Prop29
280
     1
102
RTVSPost2010PropOp29
 70
     1
102
RTVSPost2010Prop30
280
     1
102
RTVSPost2010PropOp30
 70
     1
102
RTVSPost2010Prop31
280
     0
102
RTVSPost2010PropOp31
 70
     1
102
RTVSPost2010Prop32
280
     0
102
RTVSPost2010PropOp32
 70
     1
102
RTVSPost2010Prop33
280
     0
102
RTVSPost2010PropOp33
 70
     1
102
RTVSPost2010Prop34
280
     0
102
RTVSPost2010PropOp34
 70
     1
102
RTVSPost2010Prop35
280
     0
102
RTVSPost2010PropOp35
 70
     1
102
RTVSPost2010Prop36
280
     0
102
RTVSPost2010PropOp36
 70
     1
102
RTVSPost2010Prop37
 90
       50
102
RTVSPost2010PropOp37
 70
     1
102
RTVSPost2010Prop38
140
0.0
102
RTVSPost2010PropOp38
 70
     1
102
RTVSPost2010Prop39
140
1.0
102
RTVSPost2010PropOp39
 70
     1
102
RTVSPost2010Prop40
 90
        0
102
RTVSPost2010PropOp40
 70
     1
102
RTVSPost2010Prop41ColorIndex
 90
       18
102
RTVSPost2010Prop41ColorRGB
 90
        0
102
RTVSPost2010PropOp41
 70
     1
102
RTVSPost2010Prop42
 90
       50
102
RTVSPost2010PropOp42
 70
     1
102
RTVSPost2010Prop43
 90
        3
102
RTVSPost2010PropOp43
 70
     1
102
RTVSPost2010Prop44ColorIndex
 90
        5
102
RTVSPost2010Prop44ColorRGB
 90
      255
102
RTVSPost2010PropOp44
 70
     1
102
RTVSPost2010Prop45
280
     0
102
RTVSPost2010PropOp45
 70
     1
102
RTVSPost2010Prop46
 90
       50
102
RTVSPost2010PropOp46
 70
     1
102
RTVSPost2010Prop47
 90
       50
102
RTVSPost2010PropOp47
 70
     1
102
RTVSPost2010Prop48
 90
       50
102
RTVSPost2010PropOp48
 70
     1
102
RTVSPost2010Prop49
280
     0
102
RTVSPost2010PropOp49
 70
     1
102
RTVSPost2010Prop50
 90
       50
102
RTVSPost2010PropOp50
 70
     1
102
RTVSPost2010Prop51ColorIndex
 90
      256
102
RTVSPost2010Prop51ColorRGB
 90
-16777216
102
RTVSPost2010PropOp51
 70
     0
102
RTVSPost2010Prop52
140
1.0
102
RTVSPost2010PropOp52
 70
     0
102
RTVSPost2010Prop53
 90
        2
102
RTVSPost2010PropOp53
 70
     1
102
RTVSPost2010Prop54
  1
strokes_ogs.tif
102
RTVSPost2010PropOp54
 70
     1
102
RTVSPost2010Prop55
280
     0
102
RTVSPost2010PropOp55
 70
     1
102
RTVSPost2010Prop56
140
1.0
102
RTVSPost2010PropOp56
 70
     1
102
RTVSPost2010Prop57
140
1.0
102
RTVSPost2010PropOp57
 70
     1
  0
XRECORD
  5
365
102
{ACAD_REACTORS
330
364
102
}
330
364
100
AcDbXrecord
280
     1
102
RTVSPropertyOp0
 70
     1
102
RTVSPropertyOp1
 70
     1
102
RTVSPropertyOp2
 70
     1
102
RTVSPropertyOp3
 70
     1
102
RTVSPropertyOp4
 70
     1
102
RTVSPropertyOp5
 70
     1
102
RTVSPropertyOp6
 70
     1
102
RTVSPropertyOp7
 70
     1
102
RTVSPropertyOp8
 70
     1
102
RTVSPropertyOp9
 70
     1
102
RTVSPropertyOp10
 70
     1
102
RTVSPropertyOp11
 70
     1
102
RTVSPropertyOp12
 70
     1
102
RTVSPropertyOp13
 70
     1
102
RTVSPropertyOp14
 70
     1
102
RTVSPropertyOp15
 70
     1
102
RTVSPropertyOp16
 70
     1
102
RTVSPropertyOp17
 70
     1
102
RTVSPropertyOp18
 70
     1
102
RTVSPropertyOp19
 70
     1
102
RTVSPropertyOp20
 70
     1
102
RTVSPropertyOp21
 70
     1
102
RTVSPropertyOp22
 70
     1
102
RTVSPropertyOp23
 70
     1
102
RTVSPropertyOp24
 70
     1
102
RTVSPropertyOp25
 70
     1
102
RTVSPropertyOp26
 70
     1
102
RTVSPropertyOp27
 70
     1
102
RTVSPropertyOp28
 70
     1
102
RTVSPropertyOp29
 70
     1
102
RTVSPropertyOp30
 70
     1
102
RTVSPropertyOp31
 70
     1
102
RTVSPropertyOp32
 70
     1
102
RTVSPropertyOp33
 70
     1
102
RTVSPropertyOp34
 70
     1
102
RTVSPropertyOp35
 70
     1
102
RTVSPropertyOp36
 70
     1
102
RTVSPropertyOp37
 70
     1
102
RTVSPropertyOp38
 70
     1
102
RTVSPropertyOp39
 70
     1
102
RTVSPropertyOp40
 70
     1
102
RTVSPropertyOp41
 70
     1
102
RTVSPropertyOp42
 70
     1
102
RTVSPropertyOp43
 70
     1
102
RTVSPropertyOp44
 70
     1
102
RTVSPropertyOp45
 70
     1
102
RTVSPropertyOp46
 70
     1
102
RTVSPropertyOp47
 70
     1
102
RTVSPropertyOp48
 70
     1
102
RTVSPropertyOp49
 70
     1
102
RTVSPropertyOp50
 70
     1
102
RTVSPropertyOp51
 70
     0
102
RTVSPropertyOp52
 70
     0
102
RTVSPropertyOp53
 70
     1
102
RTVSPropertyOp54
 70
     1
102
RTVSPropertyOp55
 70
     1
102
RTVSPropertyOp56
 70
     1
102
RTVSPropertyOp57
 70
     1
102
RTVSPost2010Prop28
280
     0
102
RTVSPost2010PropOp28
 70
     1
102
RTVSPost2010Prop29
280
     1
102
RTVSPost2010PropOp29
 70
     1
102
RTVSPost2010Prop30
280
     1
102
RTVSPost2010PropOp30
 70
     1
102
RTVSPost2010Prop31
280
     0
102
RTVSPost2010PropOp31
 70
     1
102
RTVSPost2010Prop32
280
     0
102
RTVSPost2010PropOp32
 70
     1
102
RTVSPost2010Prop33
280
     0
102
RTVSPost2010PropOp33
 70
     1
102
RTVSPost2010Prop34
280
     0
102
RTVSPost2010PropOp34
 70
     1
102
RTVSPost2010Prop35
280
     0
102
RTVSPost2010PropOp35
 70
     1
102
RTVSPost2010Prop36
280
     0
102
RTVSPost2010PropOp36
 70
     1
102
RTVSPost2010Prop37
 90
       50
102
RTVSPost2010PropOp37
 70
     1
102
RTVSPost2010Prop38
140
0.0
102
RTVSPost2010PropOp38
 70
     1
102
RTVSPost2010Prop39
140
1.0
102
RTVSPost2010PropOp39
 70
     1
102
RTVSPost2010Prop40
 90
        0
102
RTVSPost2010PropOp40
 70
     1
102
RTVSPost2010Prop41ColorIndex
 90
       18
102
RTVSPost2010Prop41ColorRGB
 90
        0
102
RTVSPost2010PropOp41
 70
     1
102
RTVSPost2010Prop42
 90
       50
102
RTVSPost2010PropOp42
 70
     1
102
RTVSPost2010Prop43
 90
        3
102
RTVSPost2010PropOp43
 70
     1
102
RTVSPost2010Prop44ColorIndex
 90
        5
102
RTVSPost2010Prop44ColorRGB
 90
      255
102
RTVSPost2010PropOp44
 70
     1
102
RTVSPost2010Prop45
280
     0
102
RTVSPost2010PropOp45
 70
     1
102
RTVSPost2010Prop46
 90
       50
102
RTVSPost2010PropOp46
 70
     1
102
RTVSPost2010Prop47
 90
       50
102
RTVSPost2010PropOp47
 70
     1
102
RTVSPost2010Prop48
 90
       50
102
RTVSPost2010PropOp48
 70
     1
102
RTVSPost2010Prop49
280
     0
102
RTVSPost2010PropOp49
 70
     1
102
RTVSPost2010Prop50
 90
       50
102
RTVSPost2010PropOp50
 70
     1
102
RTVSPost2010Prop51ColorIndex
 90
      256
102
RTVSPost2010Prop51ColorRGB
 90
-16777216
102
RTVSPost2010PropOp51
 70
     0
102
RTVSPost2010Prop52
140
1.0
102
RTVSPost2010PropOp52
 70
     0
102
RTVSPost2010Prop53
 90
        2
102
RTVSPost2010PropOp53
 70
     1
102
RTVSPost2010Prop54
  1
strokes_ogs.tif
102
RTVSPost2010PropOp54
 70
     1
102
RTVSPost2010Prop55
280
     0
102
RTVSPost2010PropOp55
 70
     1
102
RTVSPost2010Prop56
140
1.0
102
RTVSPost2010PropOp56
 70
     1
102
RTVSPost2010Prop57
140
1.0
102
RTVSPost2010PropOp57
 70
     1
  0
XRECORD
  5
367
102
{ACAD_REACTORS
330
366
102
}
330
366
100
AcDbXrecord
280
     1
102
RTVSPropertyOp0
 70
     1
102
RTVSPropertyOp1
 70
     1
102
RTVSPropertyOp2
 70
     1
102
RTVSPropertyOp3
 70
     1
102
RTVSPropertyOp4
 70
     1
102
RTVSPropertyOp5
 70
     1
102
RTVSPropertyOp6
 70
     1
102
RTVSPropertyOp7
 70
     1
102
RTVSPropertyOp8
 70
     1
102
RTVSPropertyOp9
 70
     1
102
RTVSPropertyOp10
 70
     1
102
RTVSPropertyOp11
 70
     1
102
RTVSPropertyOp12
 70
     1
102
RTVSPropertyOp13
 70
     1
102
RTVSPropertyOp14
 70
     1
102
RTVSPropertyOp15
 70
     1
102
RTVSPropertyOp16
 70
     1
102
RTVSPropertyOp17
 70
     1
102
RTVSPropertyOp18
 70
     1
102
RTVSPropertyOp19
 70
     1
102
RTVSPropertyOp20
 70
     1
102
RTVSPropertyOp21
 70
     1
102
RTVSPropertyOp22
 70
     1
102
RTVSPropertyOp23
 70
     1
102
RTVSPropertyOp24
 70
     1
102
RTVSPropertyOp25
 70
     1
102
RTVSPropertyOp26
 70
     1
102
RTVSPropertyOp27
 70
     1
102
RTVSPropertyOp28
 70
     1
102
RTVSPropertyOp29
 70
     1
102
RTVSPropertyOp30
 70
     1
102
RTVSPropertyOp31
 70
     1
102
RTVSPropertyOp32
 70
     1
102
RTVSPropertyOp33
 70
     1
102
RTVSPropertyOp34
 70
     1
102
RTVSPropertyOp35
 70
     1
102
RTVSPropertyOp36
 70
     1
102
RTVSPropertyOp37
 70
     1
102
RTVSPropertyOp38
 70
     1
102
RTVSPropertyOp39
 70
     1
102
RTVSPropertyOp40
 70
     1
102
RTVSPropertyOp41
 70
     1
102
RTVSPropertyOp42
 70
     1
102
RTVSPropertyOp43
 70
     1
102
RTVSPropertyOp44
 70
     1
102
RTVSPropertyOp45
 70
     1
102
RTVSPropertyOp46
 70
     1
102
RTVSPropertyOp47
 70
     1
102
RTVSPropertyOp48
 70
     1
102
RTVSPropertyOp49
 70
     1
102
RTVSPropertyOp50
 70
     1
102
RTVSPropertyOp51
 70
     0
102
RTVSPropertyOp52
 70
     0
102
RTVSPropertyOp53
 70
     1
102
RTVSPropertyOp54
 70
     1
102
RTVSPropertyOp55
 70
     1
102
RTVSPropertyOp56
 70
     1
102
RTVSPropertyOp57
 70
     1
102
RTVSPost2010Prop28
280
     0
102
RTVSPost2010PropOp28
 70
     1
102
RTVSPost2010Prop29
280
     1
102
RTVSPost2010PropOp29
 70
     1
102
RTVSPost2010Prop30
280
     1
102
RTVSPost2010PropOp30
 70
     1
102
RTVSPost2010Prop31
280
     0
102
RTVSPost2010PropOp31
 70
     1
102
RTVSPost2010Prop32
280
     0
102
RTVSPost2010PropOp32
 70
     1
102
RTVSPost2010Prop33
280
     0
102
RTVSPost2010PropOp33
 70
     1
102
RTVSPost2010Prop34
280
     0
102
RTVSPost2010PropOp34
 70
     1
102
RTVSPost2010Prop35
280
     0
102
RTVSPost2010PropOp35
 70
     1
102
RTVSPost2010Prop36
280
     0
102
RTVSPost2010PropOp36
 70
     1
102
RTVSPost2010Prop37
 90
       50
102
RTVSPost2010PropOp37
 70
     1
102
RTVSPost2010Prop38
140
0.0
102
RTVSPost2010PropOp38
 70
     1
102
RTVSPost2010Prop39
140
1.0
102
RTVSPost2010PropOp39
 70
     1
102
RTVSPost2010Prop40
 90
        0
102
RTVSPost2010PropOp40
 70
     1
102
RTVSPost2010Prop41ColorIndex
 90
       18
102
RTVSPost2010Prop41ColorRGB
 90
        0
102
RTVSPost2010PropOp41
 70
     1
102
RTVSPost2010Prop42
 90
       50
102
RTVSPost2010PropOp42
 70
     1
102
RTVSPost2010Prop43
 90
        3
102
RTVSPost2010PropOp43
 70
     1
102
RTVSPost2010Prop44ColorIndex
 90
        5
102
RTVSPost2010Prop44ColorRGB
 90
      255
102
RTVSPost2010PropOp44
 70
     1
102
RTVSPost2010Prop45
280
     0
102
RTVSPost2010PropOp45
 70
     1
102
RTVSPost2010Prop46
 90
       50
102
RTVSPost2010PropOp46
 70
     1
102
RTVSPost2010Prop47
 90
       50
102
RTVSPost2010PropOp47
 70
     1
102
RTVSPost2010Prop48
 90
       50
102
RTVSPost2010PropOp48
 70
     1
102
RTVSPost2010Prop49
280
     0
102
RTVSPost2010PropOp49
 70
     1
102
RTVSPost2010Prop50
 90
       50
102
RTVSPost2010PropOp50
 70
     1
102
RTVSPost2010Prop51ColorIndex
 90
      256
102
RTVSPost2010Prop51ColorRGB
 90
-16777216
102
RTVSPost2010PropOp51
 70
     0
102
RTVSPost2010Prop52
140
1.0
102
RTVSPost2010PropOp52
 70
     0
102
RTVSPost2010Prop53
 90
        2
102
RTVSPost2010PropOp53
 70
     1
102
RTVSPost2010Prop54
  1
strokes_ogs.tif
102
RTVSPost2010PropOp54
 70
     1
102
RTVSPost2010Prop55
280
     0
102
RTVSPost2010PropOp55
 70
     1
102
RTVSPost2010Prop56
140
1.0
102
RTVSPost2010PropOp56
 70
     1
102
RTVSPost2010Prop57
140
1.0
102
RTVSPost2010PropOp57
 70
     1
  0
XRECORD
  5
369
102
{ACAD_REACTORS
330
368
102
}
330
368
100
AcDbXrecord
280
     1
102
RTVSPropertyOp0
 70
     1
102
RTVSPropertyOp1
 70
     1
102
RTVSPropertyOp2
 70
     1
102
RTVSPropertyOp3
 70
     1
102
RTVSPropertyOp4
 70
     1
102
RTVSPropertyOp5
 70
     1
102
RTVSPropertyOp6
 70
     1
102
RTVSPropertyOp7
 70
     1
102
RTVSPropertyOp8
 70
     1
102
RTVSPropertyOp9
 70
     1
102
RTVSPropertyOp10
 70
     1
102
RTVSPropertyOp11
 70
     1
102
RTVSPropertyOp12
 70
     1
102
RTVSPropertyOp13
 70
     1
102
RTVSPropertyOp14
 70
     1
102
RTVSPropertyOp15
 70
     1
102
RTVSPropertyOp16
 70
     1
102
RTVSPropertyOp17
 70
     1
102
RTVSPropertyOp18
 70
     1
102
RTVSPropertyOp19
 70
     1
102
RTVSPropertyOp20
 70
     1
102
RTVSPropertyOp21
 70
     1
102
RTVSPropertyOp22
 70
     1
102
RTVSPropertyOp23
 70
     1
102
RTVSPropertyOp24
 70
     1
102
RTVSPropertyOp25
 70
     1
102
RTVSPropertyOp26
 70
     1
102
RTVSPropertyOp27
 70
     1
102
RTVSPropertyOp28
 70
     1
102
RTVSPropertyOp29
 70
     1
102
RTVSPropertyOp30
 70
     1
102
RTVSPropertyOp31
 70
     1
102
RTVSPropertyOp32
 70
     1
102
RTVSPropertyOp33
 70
     1
102
RTVSPropertyOp34
 70
     1
102
RTVSPropertyOp35
 70
     1
102
RTVSPropertyOp36
 70
     1
102
RTVSPropertyOp37
 70
     1
102
RTVSPropertyOp38
 70
     1
102
RTVSPropertyOp39
 70
     1
102
RTVSPropertyOp40
 70
     1
102
RTVSPropertyOp41
 70
     1
102
RTVSPropertyOp42
 70
     1
102
RTVSPropertyOp43
 70
     1
102
RTVSPropertyOp44
 70
     1
102
RTVSPropertyOp45
 70
     1
102
RTVSPropertyOp46
 70
     1
102
RTVSPropertyOp47
 70
     1
102
RTVSPropertyOp48
 70
     1
102
RTVSPropertyOp49
 70
     1
102
RTVSPropertyOp50
 70
     1
102
RTVSPropertyOp51
 70
     0
102
RTVSPropertyOp52
 70
     0
102
RTVSPropertyOp53
 70
     1
102
RTVSPropertyOp54
 70
     1
102
RTVSPropertyOp55
 70
     1
102
RTVSPropertyOp56
 70
     1
102
RTVSPropertyOp57
 70
     1
102
RTVSPost2010Prop28
280
     0
102
RTVSPost2010PropOp28
 70
     1
102
RTVSPost2010Prop29
280
     1
102
RTVSPost2010PropOp29
 70
     1
102
RTVSPost2010Prop30
280
     1
102
RTVSPost2010PropOp30
 70
     1
102
RTVSPost2010Prop31
280
     0
102
RTVSPost2010PropOp31
 70
     1
102
RTVSPost2010Prop32
280
     0
102
RTVSPost2010PropOp32
 70
     1
102
RTVSPost2010Prop33
280
     0
102
RTVSPost2010PropOp33
 70
     1
102
RTVSPost2010Prop34
280
     0
102
RTVSPost2010PropOp34
 70
     1
102
RTVSPost2010Prop35
280
     0
102
RTVSPost2010PropOp35
 70
     1
102
RTVSPost2010Prop36
280
     0
102
RTVSPost2010PropOp36
 70
     1
102
RTVSPost2010Prop37
 90
       50
102
RTVSPost2010PropOp37
 70
     1
102
RTVSPost2010Prop38
140
0.0
102
RTVSPost2010PropOp38
 70
     1
102
RTVSPost2010Prop39
140
1.0
102
RTVSPost2010PropOp39
 70
     1
102
RTVSPost2010Prop40
 90
        0
102
RTVSPost2010PropOp40
 70
     1
102
RTVSPost2010Prop41ColorIndex
 90
       18
102
RTVSPost2010Prop41ColorRGB
 90
        0
102
RTVSPost2010PropOp41
 70
     1
102
RTVSPost2010Prop42
 90
       50
102
RTVSPost2010PropOp42
 70
     1
102
RTVSPost2010Prop43
 90
        3
102
RTVSPost2010PropOp43
 70
     1
102
RTVSPost2010Prop44ColorIndex
 90
        5
102
RTVSPost2010Prop44ColorRGB
 90
      255
102
RTVSPost2010PropOp44
 70
     1
102
RTVSPost2010Prop45
280
     0
102
RTVSPost2010PropOp45
 70
     1
102
RTVSPost2010Prop46
 90
       50
102
RTVSPost2010PropOp46
 70
     1
102
RTVSPost2010Prop47
 90
       50
102
RTVSPost2010PropOp47
 70
     1
102
RTVSPost2010Prop48
 90
       50
102
RTVSPost2010PropOp48
 70
     1
102
RTVSPost2010Prop49
280
     0
102
RTVSPost2010PropOp49
 70
     1
102
RTVSPost2010Prop50
 90
       50
102
RTVSPost2010PropOp50
 70
     1
102
RTVSPost2010Prop51ColorIndex
 90
      256
102
RTVSPost2010Prop51ColorRGB
 90
-16777216
102
RTVSPost2010PropOp51
 70
     0
102
RTVSPost2010Prop52
140
1.0
102
RTVSPost2010PropOp52
 70
     0
102
RTVSPost2010Prop53
 90
        2
102
RTVSPost2010PropOp53
 70
     1
102
RTVSPost2010Prop54
  1
strokes_ogs.tif
102
RTVSPost2010PropOp54
 70
     1
102
RTVSPost2010Prop55
280
     0
102
RTVSPost2010PropOp55
 70
     1
102
RTVSPost2010Prop56
140
1.0
102
RTVSPost2010PropOp56
 70
     1
102
RTVSPost2010Prop57
140
1.0
102
RTVSPost2010PropOp57
 70
     1
  0
XRECORD
  5
36B
102
{ACAD_REACTORS
330
36A
102
}
330
36A
100
AcDbXrecord
280
     1
102
RTVSPropertyOp0
 70
     1
102
RTVSPropertyOp1
 70
     1
102
RTVSPropertyOp2
 70
     1
102
RTVSPropertyOp3
 70
     1
102
RTVSPropertyOp4
 70
     1
102
RTVSPropertyOp5
 70
     1
102
RTVSPropertyOp6
 70
     1
102
RTVSPropertyOp7
 70
     1
102
RTVSPropertyOp8
 70
     1
102
RTVSPropertyOp9
 70
     1
102
RTVSPropertyOp10
 70
     1
102
RTVSPropertyOp11
 70
     1
102
RTVSPropertyOp12
 70
     1
102
RTVSPropertyOp13
 70
     1
102
RTVSPropertyOp14
 70
     1
102
RTVSPropertyOp15
 70
     1
102
RTVSPropertyOp16
 70
     1
102
RTVSPropertyOp17
 70
     1
102
RTVSPropertyOp18
 70
     1
102
RTVSPropertyOp19
 70
     1
102
RTVSPropertyOp20
 70
     1
102
RTVSPropertyOp21
 70
     1
102
RTVSPropertyOp22
 70
     1
102
RTVSPropertyOp23
 70
     1
102
RTVSPropertyOp24
 70
     1
102
RTVSPropertyOp25
 70
     1
102
RTVSPropertyOp26
 70
     1
102
RTVSPropertyOp27
 70
     1
102
RTVSPropertyOp28
 70
     1
102
RTVSPropertyOp29
 70
     1
102
RTVSPropertyOp30
 70
     1
102
RTVSPropertyOp31
 70
     1
102
RTVSPropertyOp32
 70
     1
102
RTVSPropertyOp33
 70
     1
102
RTVSPropertyOp34
 70
     1
102
RTVSPropertyOp35
 70
     1
102
RTVSPropertyOp36
 70
     1
102
RTVSPropertyOp37
 70
     1
102
RTVSPropertyOp38
 70
     1
102
RTVSPropertyOp39
 70
     1
102
RTVSPropertyOp40
 70
     1
102
RTVSPropertyOp41
 70
     1
102
RTVSPropertyOp42
 70
     1
102
RTVSPropertyOp43
 70
     1
102
RTVSPropertyOp44
 70
     1
102
RTVSPropertyOp45
 70
     1
102
RTVSPropertyOp46
 70
     1
102
RTVSPropertyOp47
 70
     1
102
RTVSPropertyOp48
 70
     1
102
RTVSPropertyOp49
 70
     1
102
RTVSPropertyOp50
 70
     1
102
RTVSPropertyOp51
 70
     0
102
RTVSPropertyOp52
 70
     0
102
RTVSPropertyOp53
 70
     1
102
RTVSPropertyOp54
 70
     1
102
RTVSPropertyOp55
 70
     1
102
RTVSPropertyOp56
 70
     1
102
RTVSPropertyOp57
 70
     1
102
RTVSPost2010Prop28
280
     0
102
RTVSPost2010PropOp28
 70
     1
102
RTVSPost2010Prop29
280
     1
102
RTVSPost2010PropOp29
 70
     1
102
RTVSPost2010Prop30
280
     1
102
RTVSPost2010PropOp30
 70
     1
102
RTVSPost2010Prop31
280
     0
102
RTVSPost2010PropOp31
 70
     1
102
RTVSPost2010Prop32
280
     0
102
RTVSPost2010PropOp32
 70
     1
102
RTVSPost2010Prop33
280
     0
102
RTVSPost2010PropOp33
 70
     1
102
RTVSPost2010Prop34
280
     0
102
RTVSPost2010PropOp34
 70
     1
102
RTVSPost2010Prop35
280
     0
102
RTVSPost2010PropOp35
 70
     1
102
RTVSPost2010Prop36
280
     0
102
RTVSPost2010PropOp36
 70
     1
102
RTVSPost2010Prop37
 90
       50
102
RTVSPost2010PropOp37
 70
     1
102
RTVSPost2010Prop38
140
0.0
102
RTVSPost2010PropOp38
 70
     1
102
RTVSPost2010Prop39
140
1.0
102
RTVSPost2010PropOp39
 70
     1
102
RTVSPost2010Prop40
 90
        0
102
RTVSPost2010PropOp40
 70
     1
102
RTVSPost2010Prop41ColorIndex
 90
       18
102
RTVSPost2010Prop41ColorRGB
 90
        0
102
RTVSPost2010PropOp41
 70
     1
102
RTVSPost2010Prop42
 90
       50
102
RTVSPost2010PropOp42
 70
     1
102
RTVSPost2010Prop43
 90
        3
102
RTVSPost2010PropOp43
 70
     1
102
RTVSPost2010Prop44ColorIndex
 90
        5
102
RTVSPost2010Prop44ColorRGB
 90
      255
102
RTVSPost2010PropOp44
 70
     1
102
RTVSPost2010Prop45
280
     0
102
RTVSPost2010PropOp45
 70
     1
102
RTVSPost2010Prop46
 90
       50
102
RTVSPost2010PropOp46
 70
     1
102
RTVSPost2010Prop47
 90
       50
102
RTVSPost2010PropOp47
 70
     1
102
RTVSPost2010Prop48
 90
       50
102
RTVSPost2010PropOp48
 70
     1
102
RTVSPost2010Prop49
280
     0
102
RTVSPost2010PropOp49
 70
     1
102
RTVSPost2010Prop50
 90
       50
102
RTVSPost2010PropOp50
 70
     1
102
RTVSPost2010Prop51ColorIndex
 90
      256
102
RTVSPost2010Prop51ColorRGB
 90
-16777216
102
RTVSPost2010PropOp51
 70
     0
102
RTVSPost2010Prop52
140
1.0
102
RTVSPost2010PropOp52
 70
     0
102
RTVSPost2010Prop53
 90
        2
102
RTVSPost2010PropOp53
 70
     1
102
RTVSPost2010Prop54
  1
strokes_ogs.tif
102
RTVSPost2010PropOp54
 70
     1
102
RTVSPost2010Prop55
280
     0
102
RTVSPost2010PropOp55
 70
     1
102
RTVSPost2010Prop56
140
1.0
102
RTVSPost2010PropOp56
 70
     1
102
RTVSPost2010Prop57
140
1.0
102
RTVSPost2010PropOp57
 70
     1
  0
XRECORD
  5
371
102
{ACAD_REACTORS
330
370
102
}
330
370
100
AcDbXrecord
280
     1
102
RTVSPropertyOp0
 70
     1
102
RTVSPropertyOp1
 70
     1
102
RTVSPropertyOp2
 70
     1
102
RTVSPropertyOp3
 70
     1
102
RTVSPropertyOp4
 70
     1
102
RTVSPropertyOp5
 70
     1
102
RTVSPropertyOp6
 70
     1
102
RTVSPropertyOp7
 70
     1
102
RTVSPropertyOp8
 70
     1
102
RTVSPropertyOp9
 70
     1
102
RTVSPropertyOp10
 70
     1
102
RTVSPropertyOp11
 70
     1
102
RTVSPropertyOp12
 70
     1
102
RTVSPropertyOp13
 70
     1
102
RTVSPropertyOp14
 70
     1
102
RTVSPropertyOp15
 70
     1
102
RTVSPropertyOp16
 70
     1
102
RTVSPropertyOp17
 70
     1
102
RTVSPropertyOp18
 70
     1
102
RTVSPropertyOp19
 70
     1
102
RTVSPropertyOp20
 70
     1
102
RTVSPropertyOp21
 70
     1
102
RTVSPropertyOp22
 70
     1
102
RTVSPropertyOp23
 70
     1
102
RTVSPropertyOp24
 70
     1
102
RTVSPropertyOp25
 70
     1
102
RTVSPropertyOp26
 70
     1
102
RTVSPropertyOp27
 70
     1
102
RTVSPropertyOp28
 70
     1
102
RTVSPropertyOp29
 70
     1
102
RTVSPropertyOp30
 70
     1
102
RTVSPropertyOp31
 70
     1
102
RTVSPropertyOp32
 70
     1
102
RTVSPropertyOp33
 70
     1
102
RTVSPropertyOp34
 70
     1
102
RTVSPropertyOp35
 70
     1
102
RTVSPropertyOp36
 70
     1
102
RTVSPropertyOp37
 70
     1
102
RTVSPropertyOp38
 70
     1
102
RTVSPropertyOp39
 70
     1
102
RTVSPropertyOp40
 70
     1
102
RTVSPropertyOp41
 70
     1
102
RTVSPropertyOp42
 70
     1
102
RTVSPropertyOp43
 70
     1
102
RTVSPropertyOp44
 70
     1
102
RTVSPropertyOp45
 70
     1
102
RTVSPropertyOp46
 70
     1
102
RTVSPropertyOp47
 70
     1
102
RTVSPropertyOp48
 70
     1
102
RTVSPropertyOp49
 70
     1
102
RTVSPropertyOp50
 70
     1
102
RTVSPropertyOp51
 70
     0
102
RTVSPropertyOp52
 70
     0
102
RTVSPropertyOp53
 70
     1
102
RTVSPropertyOp54
 70
     1
102
RTVSPropertyOp55
 70
     1
102
RTVSPropertyOp56
 70
     1
102
RTVSPropertyOp57
 70
     1
102
RTVSPost2010Prop28
280
     0
102
RTVSPost2010PropOp28
 70
     1
102
RTVSPost2010Prop29
280
     1
102
RTVSPost2010PropOp29
 70
     1
102
RTVSPost2010Prop30
280
     1
102
RTVSPost2010PropOp30
 70
     1
102
RTVSPost2010Prop31
280
     0
102
RTVSPost2010PropOp31
 70
     1
102
RTVSPost2010Prop32
280
     0
102
RTVSPost2010PropOp32
 70
     1
102
RTVSPost2010Prop33
280
     0
102
RTVSPost2010PropOp33
 70
     1
102
RTVSPost2010Prop34
280
     0
102
RTVSPost2010PropOp34
 70
     1
102
RTVSPost2010Prop35
280
     0
102
RTVSPost2010PropOp35
 70
     1
102
RTVSPost2010Prop36
280
     0
102
RTVSPost2010PropOp36
 70
     1
102
RTVSPost2010Prop37
 90
       50
102
RTVSPost2010PropOp37
 70
     1
102
RTVSPost2010Prop38
140
0.0
102
RTVSPost2010PropOp38
 70
     1
102
RTVSPost2010Prop39
140
1.0
102
RTVSPost2010PropOp39
 70
     1
102
RTVSPost2010Prop40
 90
        0
102
RTVSPost2010PropOp40
 70
     1
102
RTVSPost2010Prop41ColorIndex
 90
       18
102
RTVSPost2010Prop41ColorRGB
 90
        0
102
RTVSPost2010PropOp41
 70
     1
102
RTVSPost2010Prop42
 90
       50
102
RTVSPost2010PropOp42
 70
     1
102
RTVSPost2010Prop43
 90
        3
102
RTVSPost2010PropOp43
 70
     1
102
RTVSPost2010Prop44ColorIndex
 90
        5
102
RTVSPost2010Prop44ColorRGB
 90
      255
102
RTVSPost2010PropOp44
 70
     1
102
RTVSPost2010Prop45
280
     0
102
RTVSPost2010PropOp45
 70
     1
102
RTVSPost2010Prop46
 90
       50
102
RTVSPost2010PropOp46
 70
     1
102
RTVSPost2010Prop47
 90
       50
102
RTVSPost2010PropOp47
 70
     1
102
RTVSPost2010Prop48
 90
       50
102
RTVSPost2010PropOp48
 70
     1
102
RTVSPost2010Prop49
280
     0
102
RTVSPost2010PropOp49
 70
     1
102
RTVSPost2010Prop50
 90
       50
102
RTVSPost2010PropOp50
 70
     1
102
RTVSPost2010Prop51ColorIndex
 90
      256
102
RTVSPost2010Prop51ColorRGB
 90
-16777216
102
RTVSPost2010PropOp51
 70
     0
102
RTVSPost2010Prop52
140
1.0
102
RTVSPost2010PropOp52
 70
     0
102
RTVSPost2010Prop53
 90
        2
102
RTVSPost2010PropOp53
 70
     1
102
RTVSPost2010Prop54
  1
strokes_ogs.tif
102
RTVSPost2010PropOp54
 70
     1
102
RTVSPost2010Prop55
280
     0
102
RTVSPost2010PropOp55
 70
     1
102
RTVSPost2010Prop56
140
1.0
102
RTVSPost2010PropOp56
 70
     1
102
RTVSPost2010Prop57
140
1.0
102
RTVSPost2010PropOp57
 70
     1
  0
XRECORD
  5
385
102
{ACAD_REACTORS
330
384
102
}
330
384
100
AcDbXrecord
280
     1
102
RTVSPropertyOp0
 70
     0
102
RTVSPropertyOp1
 70
     0
102
RTVSPropertyOp2
 70
     0
102
RTVSPropertyOp3
 70
     0
102
RTVSPropertyOp4
 70
     0
102
RTVSPropertyOp5
 70
     0
102
RTVSPropertyOp6
 70
     0
102
RTVSPropertyOp7
 70
     0
102
RTVSPropertyOp8
 70
     0
102
RTVSPropertyOp9
 70
     0
102
RTVSPropertyOp10
 70
     0
102
RTVSPropertyOp11
 70
     0
102
RTVSPropertyOp12
 70
     0
102
RTVSPropertyOp13
 70
     0
102
RTVSPropertyOp14
 70
     2
102
RTVSPropertyOp15
 70
     0
102
RTVSPropertyOp16
 70
     0
102
RTVSPropertyOp17
 70
     0
102
RTVSPropertyOp18
 70
     0
102
RTVSPropertyOp19
 70
     0
102
RTVSPropertyOp20
 70
     0
102
RTVSPropertyOp21
 70
     0
102
RTVSPropertyOp22
 70
     0
102
RTVSPropertyOp23
 70
     0
102
RTVSPropertyOp24
 70
     0
102
RTVSPropertyOp25
 70
     0
102
RTVSPropertyOp26
 70
     0
102
RTVSPropertyOp27
 70
     0
102
RTVSPropertyOp28
 70
     0
102
RTVSPropertyOp29
 70
     0
102
RTVSPropertyOp30
 70
     0
102
RTVSPropertyOp31
 70
     0
102
RTVSPropertyOp32
 70
     0
102
RTVSPropertyOp33
 70
     0
102
RTVSPropertyOp34
 70
     0
102
RTVSPropertyOp35
 70
     0
102
RTVSPropertyOp36
 70
     0
102
RTVSPropertyOp37
 70
     0
102
RTVSPropertyOp38
 70
     0
102
RTVSPropertyOp39
 70
     0
102
RTVSPropertyOp40
 70
     0
102
RTVSPropertyOp41
 70
     0
102
RTVSPropertyOp42
 70
     0
102
RTVSPropertyOp43
 70
     0
102
RTVSPropertyOp44
 70
     0
102
RTVSPropertyOp45
 70
     0
102
RTVSPropertyOp46
 70
     0
102
RTVSPropertyOp47
 70
     0
102
RTVSPropertyOp48
 70
     0
102
RTVSPropertyOp49
 70
     0
102
RTVSPropertyOp50
 70
     0
102
RTVSPropertyOp51
 70
     0
102
RTVSPropertyOp52
 70
     0
102
RTVSPropertyOp53
 70
     0
102
RTVSPropertyOp54
 70
     0
102
RTVSPropertyOp55
 70
     0
102
RTVSPropertyOp56
 70
     0
102
RTVSPropertyOp57
 70
     0
102
RTVSPost2010Prop28
280
     0
102
RTVSPost2010PropOp28
 70
     0
102
RTVSPost2010Prop29
280
     1
102
RTVSPost2010PropOp29
 70
     0
102
RTVSPost2010Prop30
280
     1
102
RTVSPost2010PropOp30
 70
     0
102
RTVSPost2010Prop31
280
     0
102
RTVSPost2010PropOp31
 70
     0
102
RTVSPost2010Prop32
280
     0
102
RTVSPost2010PropOp32
 70
     0
102
RTVSPost2010Prop33
280
     0
102
RTVSPost2010PropOp33
 70
     0
102
RTVSPost2010Prop34
280
     0
102
RTVSPost2010PropOp34
 70
     0
102
RTVSPost2010Prop35
280
     0
102
RTVSPost2010PropOp35
 70
     0
102
RTVSPost2010Prop36
280
     0
102
RTVSPost2010PropOp36
 70
     0
102
RTVSPost2010Prop37
 90
       50
102
RTVSPost2010PropOp37
 70
     0
102
RTVSPost2010Prop38
140
0.0
102
RTVSPost2010PropOp38
 70
     0
102
RTVSPost2010Prop39
140
1.0
102
RTVSPost2010PropOp39
 70
     0
102
RTVSPost2010Prop40
 90
        0
102
RTVSPost2010PropOp40
 70
     0
102
RTVSPost2010Prop41ColorIndex
 90
       18
102
RTVSPost2010Prop41ColorRGB
 90
        0
102
RTVSPost2010PropOp41
 70
     0
102
RTVSPost2010Prop42
 90
       50
102
RTVSPost2010PropOp42
 70
     0
102
RTVSPost2010Prop43
 90
        3
102
RTVSPost2010PropOp43
 70
     0
102
RTVSPost2010Prop44ColorIndex
 90
        5
102
RTVSPost2010Prop44ColorRGB
 90
      255
102
RTVSPost2010PropOp44
 70
     0
102
RTVSPost2010Prop45
280
     0
102
RTVSPost2010PropOp45
 70
     0
102
RTVSPost2010Prop46
 90
       50
102
RTVSPost2010PropOp46
 70
     0
102
RTVSPost2010Prop47
 90
       50
102
RTVSPost2010PropOp47
 70
     0
102
RTVSPost2010Prop48
 90
       50
102
RTVSPost2010PropOp48
 70
     0
102
RTVSPost2010Prop49
280
     0
102
RTVSPost2010PropOp49
 70
     0
102
RTVSPost2010Prop50
 90
       50
102
RTVSPost2010PropOp50
 70
     0
102
RTVSPost2010Prop51ColorIndex
 90
      256
102
RTVSPost2010Prop51ColorRGB
 90
-16777216
102
RTVSPost2010PropOp51
 70
     0
102
RTVSPost2010Prop52
140
1.0
102
RTVSPost2010PropOp52
 70
     0
102
RTVSPost2010Prop53
 90
        2
102
RTVSPost2010PropOp53
 70
     0
102
RTVSPost2010Prop54
  1
strokes_ogs.tif
102
RTVSPost2010PropOp54
 70
     0
102
RTVSPost2010Prop55
280
     0
102
RTVSPost2010PropOp55
 70
     0
102
RTVSPost2010Prop56
140
1.0
102
RTVSPost2010PropOp56
 70
     0
102
RTVSPost2010Prop57
140
1.0
102
RTVSPost2010PropOp57
 70
     0
  0
XRECORD
  5
37F
102
{ACAD_REACTORS
330
37E
102
}
330
37E
100
AcDbXrecord
280
     1
102
RTVSPropertyOp0
 70
     1
102
RTVSPropertyOp1
 70
     1
102
RTVSPropertyOp2
 70
     1
102
RTVSPropertyOp3
 70
     1
102
RTVSPropertyOp4
 70
     1
102
RTVSPropertyOp5
 70
     1
102
RTVSPropertyOp6
 70
     1
102
RTVSPropertyOp7
 70
     1
102
RTVSPropertyOp8
 70
     1
102
RTVSPropertyOp9
 70
     1
102
RTVSPropertyOp10
 70
     1
102
RTVSPropertyOp11
 70
     1
102
RTVSPropertyOp12
 70
     1
102
RTVSPropertyOp13
 70
     1
102
RTVSPropertyOp14
 70
     1
102
RTVSPropertyOp15
 70
     1
102
RTVSPropertyOp16
 70
     1
102
RTVSPropertyOp17
 70
     1
102
RTVSPropertyOp18
 70
     1
102
RTVSPropertyOp19
 70
     1
102
RTVSPropertyOp20
 70
     1
102
RTVSPropertyOp21
 70
     1
102
RTVSPropertyOp22
 70
     1
102
RTVSPropertyOp23
 70
     1
102
RTVSPropertyOp24
 70
     1
102
RTVSPropertyOp25
 70
     1
102
RTVSPropertyOp26
 70
     1
102
RTVSPropertyOp27
 70
     1
102
RTVSPropertyOp28
 70
     1
102
RTVSPropertyOp29
 70
     1
102
RTVSPropertyOp30
 70
     1
102
RTVSPropertyOp31
 70
     1
102
RTVSPropertyOp32
 70
     1
102
RTVSPropertyOp33
 70
     1
102
RTVSPropertyOp34
 70
     1
102
RTVSPropertyOp35
 70
     1
102
RTVSPropertyOp36
 70
     1
102
RTVSPropertyOp37
 70
     1
102
RTVSPropertyOp38
 70
     1
102
RTVSPropertyOp39
 70
     1
102
RTVSPropertyOp40
 70
     1
102
RTVSPropertyOp41
 70
     1
102
RTVSPropertyOp42
 70
     1
102
RTVSPropertyOp43
 70
     1
102
RTVSPropertyOp44
 70
     1
102
RTVSPropertyOp45
 70
     1
102
RTVSPropertyOp46
 70
     1
102
RTVSPropertyOp47
 70
     1
102
RTVSPropertyOp48
 70
     1
102
RTVSPropertyOp49
 70
     1
102
RTVSPropertyOp50
 70
     1
102
RTVSPropertyOp51
 70
     0
102
RTVSPropertyOp52
 70
     0
102
RTVSPropertyOp53
 70
     1
102
RTVSPropertyOp54
 70
     1
102
RTVSPropertyOp55
 70
     1
102
RTVSPropertyOp56
 70
     1
102
RTVSPropertyOp57
 70
     1
102
RTVSPost2010Prop28
280
     0
102
RTVSPost2010PropOp28
 70
     1
102
RTVSPost2010Prop29
280
     1
102
RTVSPost2010PropOp29
 70
     1
102
RTVSPost2010Prop30
280
     1
102
RTVSPost2010PropOp30
 70
     1
102
RTVSPost2010Prop31
280
     0
102
RTVSPost2010PropOp31
 70
     1
102
RTVSPost2010Prop32
280
     0
102
RTVSPost2010PropOp32
 70
     1
102
RTVSPost2010Prop33
280
     0
102
RTVSPost2010PropOp33
 70
     1
102
RTVSPost2010Prop34
280
     0
102
RTVSPost2010PropOp34
 70
     1
102
RTVSPost2010Prop35
280
     0
102
RTVSPost2010PropOp35
 70
     1
102
RTVSPost2010Prop36
280
     0
102
RTVSPost2010PropOp36
 70
     1
102
RTVSPost2010Prop37
 90
       50
102
RTVSPost2010PropOp37
 70
     1
102
RTVSPost2010Prop38
140
0.0
102
RTVSPost2010PropOp38
 70
     1
102
RTVSPost2010Prop39
140
1.0
102
RTVSPost2010PropOp39
 70
     1
102
RTVSPost2010Prop40
 90
        0
102
RTVSPost2010PropOp40
 70
     1
102
RTVSPost2010Prop41ColorIndex
 90
       18
102
RTVSPost2010Prop41ColorRGB
 90
        0
102
RTVSPost2010PropOp41
 70
     1
102
RTVSPost2010Prop42
 90
       50
102
RTVSPost2010PropOp42
 70
     1
102
RTVSPost2010Prop43
 90
        3
102
RTVSPost2010PropOp43
 70
     1
102
RTVSPost2010Prop44ColorIndex
 90
        5
102
RTVSPost2010Prop44ColorRGB
 90
      255
102
RTVSPost2010PropOp44
 70
     1
102
RTVSPost2010Prop45
280
     0
102
RTVSPost2010PropOp45
 70
     1
102
RTVSPost2010Prop46
 90
       50
102
RTVSPost2010PropOp46
 70
     1
102
RTVSPost2010Prop47
 90
       50
102
RTVSPost2010PropOp47
 70
     1
102
RTVSPost2010Prop48
 90
       50
102
RTVSPost2010PropOp48
 70
     1
102
RTVSPost2010Prop49
280
     0
102
RTVSPost2010PropOp49
 70
     1
102
RTVSPost2010Prop50
 90
       50
102
RTVSPost2010PropOp50
 70
     1
102
RTVSPost2010Prop51ColorIndex
 90
      256
102
RTVSPost2010Prop51ColorRGB
 90
-16777216
102
RTVSPost2010PropOp51
 70
     0
102
RTVSPost2010Prop52
140
1.0
102
RTVSPost2010PropOp52
 70
     0
102
RTVSPost2010Prop53
 90
        2
102
RTVSPost2010PropOp53
 70
     1
102
RTVSPost2010Prop54
  1
strokes_ogs.tif
102
RTVSPost2010PropOp54
 70
     1
102
RTVSPost2010Prop55
280
     0
102
RTVSPost2010PropOp55
 70
     1
102
RTVSPost2010Prop56
140
1.0
102
RTVSPost2010PropOp56
 70
     1
102
RTVSPost2010Prop57
140
1.0
102
RTVSPost2010PropOp57
 70
     1
  0
XRECORD
  5
387
102
{ACAD_REACTORS
330
386
102
}
330
386
100
AcDbXrecord
280
     1
102
RTVSPropertyOp0
 70
     0
102
RTVSPropertyOp1
 70
     0
102
RTVSPropertyOp2
 70
     0
102
RTVSPropertyOp3
 70
     0
102
RTVSPropertyOp4
 70
     0
102
RTVSPropertyOp5
 70
     0
102
RTVSPropertyOp6
 70
     0
102
RTVSPropertyOp7
 70
     0
102
RTVSPropertyOp8
 70
     0
102
RTVSPropertyOp9
 70
     0
102
RTVSPropertyOp10
 70
     0
102
RTVSPropertyOp11
 70
     0
102
RTVSPropertyOp12
 70
     0
102
RTVSPropertyOp13
 70
     0
102
RTVSPropertyOp14
 70
     2
102
RTVSPropertyOp15
 70
     0
102
RTVSPropertyOp16
 70
     0
102
RTVSPropertyOp17
 70
     0
102
RTVSPropertyOp18
 70
     0
102
RTVSPropertyOp19
 70
     0
102
RTVSPropertyOp20
 70
     0
102
RTVSPropertyOp21
 70
     0
102
RTVSPropertyOp22
 70
     0
102
RTVSPropertyOp23
 70
     0
102
RTVSPropertyOp24
 70
     0
102
RTVSPropertyOp25
 70
     0
102
RTVSPropertyOp26
 70
     0
102
RTVSPropertyOp27
 70
     0
102
RTVSPropertyOp28
 70
     0
102
RTVSPropertyOp29
 70
     0
102
RTVSPropertyOp30
 70
     0
102
RTVSPropertyOp31
 70
     0
102
RTVSPropertyOp32
 70
     0
102
RTVSPropertyOp33
 70
     0
102
RTVSPropertyOp34
 70
     0
102
RTVSPropertyOp35
 70
     0
102
RTVSPropertyOp36
 70
     0
102
RTVSPropertyOp37
 70
     0
102
RTVSPropertyOp38
 70
     0
102
RTVSPropertyOp39
 70
     0
102
RTVSPropertyOp40
 70
     0
102
RTVSPropertyOp41
 70
     0
102
RTVSPropertyOp42
 70
     0
102
RTVSPropertyOp43
 70
     0
102
RTVSPropertyOp44
 70
     0
102
RTVSPropertyOp45
 70
     0
102
RTVSPropertyOp46
 70
     0
102
RTVSPropertyOp47
 70
     0
102
RTVSPropertyOp48
 70
     0
102
RTVSPropertyOp49
 70
     0
102
RTVSPropertyOp50
 70
     0
102
RTVSPropertyOp51
 70
     0
102
RTVSPropertyOp52
 70
     0
102
RTVSPropertyOp53
 70
     0
102
RTVSPropertyOp54
 70
     0
102
RTVSPropertyOp55
 70
     0
102
RTVSPropertyOp56
 70
     0
102
RTVSPropertyOp57
 70
     0
102
RTVSPost2010Prop28
280
     0
102
RTVSPost2010PropOp28
 70
     0
102
RTVSPost2010Prop29
280
     1
102
RTVSPost2010PropOp29
 70
     0
102
RTVSPost2010Prop30
280
     1
102
RTVSPost2010PropOp30
 70
     0
102
RTVSPost2010Prop31
280
     0
102
RTVSPost2010PropOp31
 70
     0
102
RTVSPost2010Prop32
280
     0
102
RTVSPost2010PropOp32
 70
     0
102
RTVSPost2010Prop33
280
     0
102
RTVSPost2010PropOp33
 70
     0
102
RTVSPost2010Prop34
280
     0
102
RTVSPost2010PropOp34
 70
     0
102
RTVSPost2010Prop35
280
     0
102
RTVSPost2010PropOp35
 70
     0
102
RTVSPost2010Prop36
280
     0
102
RTVSPost2010PropOp36
 70
     0
102
RTVSPost2010Prop37
 90
       50
102
RTVSPost2010PropOp37
 70
     0
102
RTVSPost2010Prop38
140
0.0
102
RTVSPost2010PropOp38
 70
     0
102
RTVSPost2010Prop39
140
1.0
102
RTVSPost2010PropOp39
 70
     0
102
RTVSPost2010Prop40
 90
        0
102
RTVSPost2010PropOp40
 70
     0
102
RTVSPost2010Prop41ColorIndex
 90
       18
102
RTVSPost2010Prop41ColorRGB
 90
        0
102
RTVSPost2010PropOp41
 70
     0
102
RTVSPost2010Prop42
 90
       50
102
RTVSPost2010PropOp42
 70
     0
102
RTVSPost2010Prop43
 90
        3
102
RTVSPost2010PropOp43
 70
     0
102
RTVSPost2010Prop44ColorIndex
 90
        5
102
RTVSPost2010Prop44ColorRGB
 90
      255
102
RTVSPost2010PropOp44
 70
     0
102
RTVSPost2010Prop45
280
     0
102
RTVSPost2010PropOp45
 70
     0
102
RTVSPost2010Prop46
 90
       50
102
RTVSPost2010PropOp46
 70
     0
102
RTVSPost2010Prop47
 90
       50
102
RTVSPost2010PropOp47
 70
     0
102
RTVSPost2010Prop48
 90
       50
102
RTVSPost2010PropOp48
 70
     0
102
RTVSPost2010Prop49
280
     0
102
RTVSPost2010PropOp49
 70
     0
102
RTVSPost2010Prop50
 90
       50
102
RTVSPost2010PropOp50
 70
     0
102
RTVSPost2010Prop51ColorIndex
 90
      256
102
RTVSPost2010Prop51ColorRGB
 90
-16777216
102
RTVSPost2010PropOp51
 70
     0
102
RTVSPost2010Prop52
140
1.0
102
RTVSPost2010PropOp52
 70
     0
102
RTVSPost2010Prop53
 90
        2
102
RTVSPost2010PropOp53
 70
     0
102
RTVSPost2010Prop54
  1
strokes_ogs.tif
102
RTVSPost2010PropOp54
 70
     0
102
RTVSPost2010Prop55
280
     0
102
RTVSPost2010PropOp55
 70
     0
102
RTVSPost2010Prop56
140
1.0
102
RTVSPost2010PropOp56
 70
     0
102
RTVSPost2010Prop57
140
1.0
102
RTVSPost2010PropOp57
 70
     0
  0
XRECORD
  5
375
102
{ACAD_REACTORS
330
374
102
}
330
374
100
AcDbXrecord
280
     1
102
RTVSPropertyOp0
 70
     1
102
RTVSPropertyOp1
 70
     1
102
RTVSPropertyOp2
 70
     1
102
RTVSPropertyOp3
 70
     1
102
RTVSPropertyOp4
 70
     1
102
RTVSPropertyOp5
 70
     1
102
RTVSPropertyOp6
 70
     1
102
RTVSPropertyOp7
 70
     1
102
RTVSPropertyOp8
 70
     1
102
RTVSPropertyOp9
 70
     1
102
RTVSPropertyOp10
 70
     1
102
RTVSPropertyOp11
 70
     1
102
RTVSPropertyOp12
 70
     1
102
RTVSPropertyOp13
 70
     1
102
RTVSPropertyOp14
 70
     1
102
RTVSPropertyOp15
 70
     1
102
RTVSPropertyOp16
 70
     1
102
RTVSPropertyOp17
 70
     1
102
RTVSPropertyOp18
 70
     1
102
RTVSPropertyOp19
 70
     1
102
RTVSPropertyOp20
 70
     1
102
RTVSPropertyOp21
 70
     1
102
RTVSPropertyOp22
 70
     1
102
RTVSPropertyOp23
 70
     1
102
RTVSPropertyOp24
 70
     1
102
RTVSPropertyOp25
 70
     1
102
RTVSPropertyOp26
 70
     1
102
RTVSPropertyOp27
 70
     1
102
RTVSPropertyOp28
 70
     1
102
RTVSPropertyOp29
 70
     1
102
RTVSPropertyOp30
 70
     1
102
RTVSPropertyOp31
 70
     1
102
RTVSPropertyOp32
 70
     1
102
RTVSPropertyOp33
 70
     1
102
RTVSPropertyOp34
 70
     1
102
RTVSPropertyOp35
 70
     1
102
RTVSPropertyOp36
 70
     1
102
RTVSPropertyOp37
 70
     1
102
RTVSPropertyOp38
 70
     1
102
RTVSPropertyOp39
 70
     1
102
RTVSPropertyOp40
 70
     1
102
RTVSPropertyOp41
 70
     1
102
RTVSPropertyOp42
 70
     1
102
RTVSPropertyOp43
 70
     1
102
RTVSPropertyOp44
 70
     1
102
RTVSPropertyOp45
 70
     1
102
RTVSPropertyOp46
 70
     1
102
RTVSPropertyOp47
 70
     1
102
RTVSPropertyOp48
 70
     1
102
RTVSPropertyOp49
 70
     1
102
RTVSPropertyOp50
 70
     1
102
RTVSPropertyOp51
 70
     0
102
RTVSPropertyOp52
 70
     0
102
RTVSPropertyOp53
 70
     1
102
RTVSPropertyOp54
 70
     1
102
RTVSPropertyOp55
 70
     1
102
RTVSPropertyOp56
 70
     1
102
RTVSPropertyOp57
 70
     1
102
RTVSPost2010Prop28
280
     0
102
RTVSPost2010PropOp28
 70
     1
102
RTVSPost2010Prop29
280
     1
102
RTVSPost2010PropOp29
 70
     1
102
RTVSPost2010Prop30
280
     1
102
RTVSPost2010PropOp30
 70
     1
102
RTVSPost2010Prop31
280
     0
102
RTVSPost2010PropOp31
 70
     1
102
RTVSPost2010Prop32
280
     0
102
RTVSPost2010PropOp32
 70
     1
102
RTVSPost2010Prop33
280
     0
102
RTVSPost2010PropOp33
 70
     1
102
RTVSPost2010Prop34
280
     0
102
RTVSPost2010PropOp34
 70
     1
102
RTVSPost2010Prop35
280
     0
102
RTVSPost2010PropOp35
 70
     1
102
RTVSPost2010Prop36
280
     0
102
RTVSPost2010PropOp36
 70
     1
102
RTVSPost2010Prop37
 90
       50
102
RTVSPost2010PropOp37
 70
     1
102
RTVSPost2010Prop38
140
0.0
102
RTVSPost2010PropOp38
 70
     1
102
RTVSPost2010Prop39
140
1.0
102
RTVSPost2010PropOp39
 70
     1
102
RTVSPost2010Prop40
 90
        0
102
RTVSPost2010PropOp40
 70
     1
102
RTVSPost2010Prop41ColorIndex
 90
       18
102
RTVSPost2010Prop41ColorRGB
 90
        0
102
RTVSPost2010PropOp41
 70
     1
102
RTVSPost2010Prop42
 90
       50
102
RTVSPost2010PropOp42
 70
     1
102
RTVSPost2010Prop43
 90
        3
102
RTVSPost2010PropOp43
 70
     1
102
RTVSPost2010Prop44ColorIndex
 90
        5
102
RTVSPost2010Prop44ColorRGB
 90
      255
102
RTVSPost2010PropOp44
 70
     1
102
RTVSPost2010Prop45
280
     0
102
RTVSPost2010PropOp45
 70
     1
102
RTVSPost2010Prop46
 90
       50
102
RTVSPost2010PropOp46
 70
     1
102
RTVSPost2010Prop47
 90
       50
102
RTVSPost2010PropOp47
 70
     1
102
RTVSPost2010Prop48
 90
       50
102
RTVSPost2010PropOp48
 70
     1
102
RTVSPost2010Prop49
280
     0
102
RTVSPost2010PropOp49
 70
     1
102
RTVSPost2010Prop50
 90
       50
102
RTVSPost2010PropOp50
 70
     1
102
RTVSPost2010Prop51ColorIndex
 90
      256
102
RTVSPost2010Prop51ColorRGB
 90
-16777216
102
RTVSPost2010PropOp51
 70
     0
102
RTVSPost2010Prop52
140
1.0
102
RTVSPost2010PropOp52
 70
     0
102
RTVSPost2010Prop53
 90
        2
102
RTVSPost2010PropOp53
 70
     1
102
RTVSPost2010Prop54
  1
strokes_ogs.tif
102
RTVSPost2010PropOp54
 70
     1
102
RTVSPost2010Prop55
280
     0
102
RTVSPost2010PropOp55
 70
     1
102
RTVSPost2010Prop56
140
1.0
102
RTVSPost2010PropOp56
 70
     1
102
RTVSPost2010Prop57
140
1.0
102
RTVSPost2010PropOp57
 70
     1
  0
XRECORD
  5
393
102
{ACAD_REACTORS
330
392
102
}
330
392
100
AcDbXrecord
280
     1
102
RTVSPropertyOp0
 70
     1
102
RTVSPropertyOp1
 70
     1
102
RTVSPropertyOp2
 70
     1
102
RTVSPropertyOp3
 70
     1
102
RTVSPropertyOp4
 70
     1
102
RTVSPropertyOp5
 70
     1
102
RTVSPropertyOp6
 70
     1
102
RTVSPropertyOp7
 70
     1
102
RTVSPropertyOp8
 70
     1
102
RTVSPropertyOp9
 70
     1
102
RTVSPropertyOp10
 70
     1
102
RTVSPropertyOp11
 70
     1
102
RTVSPropertyOp12
 70
     1
102
RTVSPropertyOp13
 70
     1
102
RTVSPropertyOp14
 70
     1
102
RTVSPropertyOp15
 70
     1
102
RTVSPropertyOp16
 70
     1
102
RTVSPropertyOp17
 70
     1
102
RTVSPropertyOp18
 70
     1
102
RTVSPropertyOp19
 70
     1
102
RTVSPropertyOp20
 70
     1
102
RTVSPropertyOp21
 70
     1
102
RTVSPropertyOp22
 70
     1
102
RTVSPropertyOp23
 70
     1
102
RTVSPropertyOp24
 70
     1
102
RTVSPropertyOp25
 70
     1
102
RTVSPropertyOp26
 70
     1
102
RTVSPropertyOp27
 70
     1
102
RTVSPropertyOp28
 70
     1
102
RTVSPropertyOp29
 70
     1
102
RTVSPropertyOp30
 70
     1
102
RTVSPropertyOp31
 70
     1
102
RTVSPropertyOp32
 70
     1
102
RTVSPropertyOp33
 70
     1
102
RTVSPropertyOp34
 70
     1
102
RTVSPropertyOp35
 70
     1
102
RTVSPropertyOp36
 70
     1
102
RTVSPropertyOp37
 70
     1
102
RTVSPropertyOp38
 70
     1
102
RTVSPropertyOp39
 70
     1
102
RTVSPropertyOp40
 70
     1
102
RTVSPropertyOp41
 70
     1
102
RTVSPropertyOp42
 70
     1
102
RTVSPropertyOp43
 70
     1
102
RTVSPropertyOp44
 70
     1
102
RTVSPropertyOp45
 70
     1
102
RTVSPropertyOp46
 70
     1
102
RTVSPropertyOp47
 70
     1
102
RTVSPropertyOp48
 70
     1
102
RTVSPropertyOp49
 70
     1
102
RTVSPropertyOp50
 70
     1
102
RTVSPropertyOp51
 70
     0
102
RTVSPropertyOp52
 70
     0
102
RTVSPropertyOp53
 70
     1
102
RTVSPropertyOp54
 70
     1
102
RTVSPropertyOp55
 70
     1
102
RTVSPropertyOp56
 70
     1
102
RTVSPropertyOp57
 70
     1
102
RTVSPost2010Prop28
280
     0
102
RTVSPost2010PropOp28
 70
     1
102
RTVSPost2010Prop29
280
     1
102
RTVSPost2010PropOp29
 70
     1
102
RTVSPost2010Prop30
280
     1
102
RTVSPost2010PropOp30
 70
     1
102
RTVSPost2010Prop31
280
     0
102
RTVSPost2010PropOp31
 70
     1
102
RTVSPost2010Prop32
280
     0
102
RTVSPost2010PropOp32
 70
     1
102
RTVSPost2010Prop33
280
     0
102
RTVSPost2010PropOp33
 70
     1
102
RTVSPost2010Prop34
280
     0
102
RTVSPost2010PropOp34
 70
     1
102
RTVSPost2010Prop35
280
     0
102
RTVSPost2010PropOp35
 70
     1
102
RTVSPost2010Prop36
280
     0
102
RTVSPost2010PropOp36
 70
     1
102
RTVSPost2010Prop37
 90
       50
102
RTVSPost2010PropOp37
 70
     1
102
RTVSPost2010Prop38
140
0.0
102
RTVSPost2010PropOp38
 70
     1
102
RTVSPost2010Prop39
140
1.0
102
RTVSPost2010PropOp39
 70
     1
102
RTVSPost2010Prop40
 90
        0
102
RTVSPost2010PropOp40
 70
     1
102
RTVSPost2010Prop41ColorIndex
 90
       18
102
RTVSPost2010Prop41ColorRGB
 90
        0
102
RTVSPost2010PropOp41
 70
     1
102
RTVSPost2010Prop42
 90
       50
102
RTVSPost2010PropOp42
 70
     1
102
RTVSPost2010Prop43
 90
        3
102
RTVSPost2010PropOp43
 70
     1
102
RTVSPost2010Prop44ColorIndex
 90
        5
102
RTVSPost2010Prop44ColorRGB
 90
      255
102
RTVSPost2010PropOp44
 70
     1
102
RTVSPost2010Prop45
280
     0
102
RTVSPost2010PropOp45
 70
     1
102
RTVSPost2010Prop46
 90
       50
102
RTVSPost2010PropOp46
 70
     1
102
RTVSPost2010Prop47
 90
       50
102
RTVSPost2010PropOp47
 70
     1
102
RTVSPost2010Prop48
 90
       50
102
RTVSPost2010PropOp48
 70
     1
102
RTVSPost2010Prop49
280
     0
102
RTVSPost2010PropOp49
 70
     1
102
RTVSPost2010Prop50
 90
       50
102
RTVSPost2010PropOp50
 70
     1
102
RTVSPost2010Prop51ColorIndex
 90
      256
102
RTVSPost2010Prop51ColorRGB
 90
-16777216
102
RTVSPost2010PropOp51
 70
     0
102
RTVSPost2010Prop52
140
1.0
102
RTVSPost2010PropOp52
 70
     0
102
RTVSPost2010Prop53
 90
        2
102
RTVSPost2010PropOp53
 70
     1
102
RTVSPost2010Prop54
  1
strokes_ogs.tif
102
RTVSPost2010PropOp54
 70
     1
102
RTVSPost2010Prop55
280
     0
102
RTVSPost2010PropOp55
 70
     1
102
RTVSPost2010Prop56
140
1.0
102
RTVSPost2010PropOp56
 70
     1
102
RTVSPost2010Prop57
140
1.0
102
RTVSPost2010PropOp57
 70
     1
  0
XRECORD
  5
391
102
{ACAD_REACTORS
330
390
102
}
330
390
100
AcDbXrecord
280
     1
102
RTVSPropertyOp0
 70
     1
102
RTVSPropertyOp1
 70
     1
102
RTVSPropertyOp2
 70
     1
102
RTVSPropertyOp3
 70
     1
102
RTVSPropertyOp4
 70
     1
102
RTVSPropertyOp5
 70
     1
102
RTVSPropertyOp6
 70
     1
102
RTVSPropertyOp7
 70
     1
102
RTVSPropertyOp8
 70
     1
102
RTVSPropertyOp9
 70
     1
102
RTVSPropertyOp10
 70
     1
102
RTVSPropertyOp11
 70
     1
102
RTVSPropertyOp12
 70
     1
102
RTVSPropertyOp13
 70
     1
102
RTVSPropertyOp14
 70
     1
102
RTVSPropertyOp15
 70
     1
102
RTVSPropertyOp16
 70
     1
102
RTVSPropertyOp17
 70
     1
102
RTVSPropertyOp18
 70
     1
102
RTVSPropertyOp19
 70
     1
102
RTVSPropertyOp20
 70
     1
102
RTVSPropertyOp21
 70
     1
102
RTVSPropertyOp22
 70
     1
102
RTVSPropertyOp23
 70
     1
102
RTVSPropertyOp24
 70
     1
102
RTVSPropertyOp25
 70
     1
102
RTVSPropertyOp26
 70
     1
102
RTVSPropertyOp27
 70
     1
102
RTVSPropertyOp28
 70
     1
102
RTVSPropertyOp29
 70
     1
102
RTVSPropertyOp30
 70
     1
102
RTVSPropertyOp31
 70
     1
102
RTVSPropertyOp32
 70
     1
102
RTVSPropertyOp33
 70
     1
102
RTVSPropertyOp34
 70
     1
102
RTVSPropertyOp35
 70
     1
102
RTVSPropertyOp36
 70
     1
102
RTVSPropertyOp37
 70
     1
102
RTVSPropertyOp38
 70
     1
102
RTVSPropertyOp39
 70
     1
102
RTVSPropertyOp40
 70
     1
102
RTVSPropertyOp41
 70
     1
102
RTVSPropertyOp42
 70
     1
102
RTVSPropertyOp43
 70
     1
102
RTVSPropertyOp44
 70
     1
102
RTVSPropertyOp45
 70
     1
102
RTVSPropertyOp46
 70
     1
102
RTVSPropertyOp47
 70
     1
102
RTVSPropertyOp48
 70
     1
102
RTVSPropertyOp49
 70
     1
102
RTVSPropertyOp50
 70
     1
102
RTVSPropertyOp51
 70
     0
102
RTVSPropertyOp52
 70
     0
102
RTVSPropertyOp53
 70
     1
102
RTVSPropertyOp54
 70
     1
102
RTVSPropertyOp55
 70
     1
102
RTVSPropertyOp56
 70
     1
102
RTVSPropertyOp57
 70
     1
102
RTVSPost2010Prop28
280
     0
102
RTVSPost2010PropOp28
 70
     1
102
RTVSPost2010Prop29
280
     1
102
RTVSPost2010PropOp29
 70
     1
102
RTVSPost2010Prop30
280
     1
102
RTVSPost2010PropOp30
 70
     1
102
RTVSPost2010Prop31
280
     0
102
RTVSPost2010PropOp31
 70
     1
102
RTVSPost2010Prop32
280
     0
102
RTVSPost2010PropOp32
 70
     1
102
RTVSPost2010Prop33
280
     0
102
RTVSPost2010PropOp33
 70
     1
102
RTVSPost2010Prop34
280
     0
102
RTVSPost2010PropOp34
 70
     1
102
RTVSPost2010Prop35
280
     0
102
RTVSPost2010PropOp35
 70
     1
102
RTVSPost2010Prop36
280
     0
102
RTVSPost2010PropOp36
 70
     1
102
RTVSPost2010Prop37
 90
       50
102
RTVSPost2010PropOp37
 70
     1
102
RTVSPost2010Prop38
140
0.0
102
RTVSPost2010PropOp38
 70
     1
102
RTVSPost2010Prop39
140
1.0
102
RTVSPost2010PropOp39
 70
     1
102
RTVSPost2010Prop40
 90
        0
102
RTVSPost2010PropOp40
 70
     1
102
RTVSPost2010Prop41ColorIndex
 90
       18
102
RTVSPost2010Prop41ColorRGB
 90
        0
102
RTVSPost2010PropOp41
 70
     1
102
RTVSPost2010Prop42
 90
       50
102
RTVSPost2010PropOp42
 70
     1
102
RTVSPost2010Prop43
 90
        3
102
RTVSPost2010PropOp43
 70
     1
102
RTVSPost2010Prop44ColorIndex
 90
        5
102
RTVSPost2010Prop44ColorRGB
 90
      255
102
RTVSPost2010PropOp44
 70
     1
102
RTVSPost2010Prop45
280
     0
102
RTVSPost2010PropOp45
 70
     1
102
RTVSPost2010Prop46
 90
       50
102
RTVSPost2010PropOp46
 70
     1
102
RTVSPost2010Prop47
 90
       50
102
RTVSPost2010PropOp47
 70
     1
102
RTVSPost2010Prop48
 90
       50
102
RTVSPost2010PropOp48
 70
     1
102
RTVSPost2010Prop49
280
     0
102
RTVSPost2010PropOp49
 70
     1
102
RTVSPost2010Prop50
 90
       50
102
RTVSPost2010PropOp50
 70
     1
102
RTVSPost2010Prop51ColorIndex
 90
      256
102
RTVSPost2010Prop51ColorRGB
 90
-16777216
102
RTVSPost2010PropOp51
 70
     0
102
RTVSPost2010Prop52
140
1.0
102
RTVSPost2010PropOp52
 70
     0
102
RTVSPost2010Prop53
 90
        2
102
RTVSPost2010PropOp53
 70
     1
102
RTVSPost2010Prop54
  1
strokes_ogs.tif
102
RTVSPost2010PropOp54
 70
     1
102
RTVSPost2010Prop55
280
     0
102
RTVSPost2010PropOp55
 70
     1
102
RTVSPost2010Prop56
140
1.0
102
RTVSPost2010PropOp56
 70
     1
102
RTVSPost2010Prop57
140
1.0
102
RTVSPost2010PropOp57
 70
     1
  0
XRECORD
  5
38B
102
{ACAD_REACTORS
330
38A
102
}
330
38A
100
AcDbXrecord
280
     1
102
RTVSPropertyOp0
 70
     1
102
RTVSPropertyOp1
 70
     1
102
RTVSPropertyOp2
 70
     1
102
RTVSPropertyOp3
 70
     1
102
RTVSPropertyOp4
 70
     1
102
RTVSPropertyOp5
 70
     1
102
RTVSPropertyOp6
 70
     1
102
RTVSPropertyOp7
 70
     1
102
RTVSPropertyOp8
 70
     1
102
RTVSPropertyOp9
 70
     1
102
RTVSPropertyOp10
 70
     1
102
RTVSPropertyOp11
 70
     1
102
RTVSPropertyOp12
 70
     1
102
RTVSPropertyOp13
 70
     1
102
RTVSPropertyOp14
 70
     1
102
RTVSPropertyOp15
 70
     1
102
RTVSPropertyOp16
 70
     1
102
RTVSPropertyOp17
 70
     1
102
RTVSPropertyOp18
 70
     1
102
RTVSPropertyOp19
 70
     1
102
RTVSPropertyOp20
 70
     1
102
RTVSPropertyOp21
 70
     1
102
RTVSPropertyOp22
 70
     1
102
RTVSPropertyOp23
 70
     1
102
RTVSPropertyOp24
 70
     1
102
RTVSPropertyOp25
 70
     1
102
RTVSPropertyOp26
 70
     1
102
RTVSPropertyOp27
 70
     1
102
RTVSPropertyOp28
 70
     1
102
RTVSPropertyOp29
 70
     1
102
RTVSPropertyOp30
 70
     1
102
RTVSPropertyOp31
 70
     1
102
RTVSPropertyOp32
 70
     1
102
RTVSPropertyOp33
 70
     1
102
RTVSPropertyOp34
 70
     1
102
RTVSPropertyOp35
 70
     1
102
RTVSPropertyOp36
 70
     1
102
RTVSPropertyOp37
 70
     1
102
RTVSPropertyOp38
 70
     1
102
RTVSPropertyOp39
 70
     1
102
RTVSPropertyOp40
 70
     1
102
RTVSPropertyOp41
 70
     1
102
RTVSPropertyOp42
 70
     1
102
RTVSPropertyOp43
 70
     1
102
RTVSPropertyOp44
 70
     1
102
RTVSPropertyOp45
 70
     1
102
RTVSPropertyOp46
 70
     1
102
RTVSPropertyOp47
 70
     1
102
RTVSPropertyOp48
 70
     1
102
RTVSPropertyOp49
 70
     1
102
RTVSPropertyOp50
 70
     1
102
RTVSPropertyOp51
 70
     0
102
RTVSPropertyOp52
 70
     0
102
RTVSPropertyOp53
 70
     1
102
RTVSPropertyOp54
 70
     1
102
RTVSPropertyOp55
 70
     1
102
RTVSPropertyOp56
 70
     1
102
RTVSPropertyOp57
 70
     1
102
RTVSPost2010Prop28
280
     0
102
RTVSPost2010PropOp28
 70
     1
102
RTVSPost2010Prop29
280
     1
102
RTVSPost2010PropOp29
 70
     1
102
RTVSPost2010Prop30
280
     1
102
RTVSPost2010PropOp30
 70
     1
102
RTVSPost2010Prop31
280
     0
102
RTVSPost2010PropOp31
 70
     1
102
RTVSPost2010Prop32
280
     0
102
RTVSPost2010PropOp32
 70
     1
102
RTVSPost2010Prop33
280
     0
102
RTVSPost2010PropOp33
 70
     1
102
RTVSPost2010Prop34
280
     0
102
RTVSPost2010PropOp34
 70
     1
102
RTVSPost2010Prop35
280
     0
102
RTVSPost2010PropOp35
 70
     1
102
RTVSPost2010Prop36
280
     0
102
RTVSPost2010PropOp36
 70
     1
102
RTVSPost2010Prop37
 90
       50
102
RTVSPost2010PropOp37
 70
     1
102
RTVSPost2010Prop38
140
0.0
102
RTVSPost2010PropOp38
 70
     1
102
RTVSPost2010Prop39
140
1.0
102
RTVSPost2010PropOp39
 70
     1
102
RTVSPost2010Prop40
 90
        0
102
RTVSPost2010PropOp40
 70
     1
102
RTVSPost2010Prop41ColorIndex
 90
       18
102
RTVSPost2010Prop41ColorRGB
 90
        0
102
RTVSPost2010PropOp41
 70
     1
102
RTVSPost2010Prop42
 90
       50
102
RTVSPost2010PropOp42
 70
     1
102
RTVSPost2010Prop43
 90
        3
102
RTVSPost2010PropOp43
 70
     1
102
RTVSPost2010Prop44ColorIndex
 90
        5
102
RTVSPost2010Prop44ColorRGB
 90
      255
102
RTVSPost2010PropOp44
 70
     1
102
RTVSPost2010Prop45
280
     0
102
RTVSPost2010PropOp45
 70
     1
102
RTVSPost2010Prop46
 90
       50
102
RTVSPost2010PropOp46
 70
     1
102
RTVSPost2010Prop47
 90
       50
102
RTVSPost2010PropOp47
 70
     1
102
RTVSPost2010Prop48
 90
       50
102
RTVSPost2010PropOp48
 70
     1
102
RTVSPost2010Prop49
280
     0
102
RTVSPost2010PropOp49
 70
     1
102
RTVSPost2010Prop50
 90
       50
102
RTVSPost2010PropOp50
 70
     1
102
RTVSPost2010Prop51ColorIndex
 90
      256
102
RTVSPost2010Prop51ColorRGB
 90
-16777216
102
RTVSPost2010PropOp51
 70
     0
102
RTVSPost2010Prop52
140
1.0
102
RTVSPost2010PropOp52
 70
     0
102
RTVSPost2010Prop53
 90
        2
102
RTVSPost2010PropOp53
 70
     1
102
RTVSPost2010Prop54
  1
strokes_ogs.tif
102
RTVSPost2010PropOp54
 70
     1
102
RTVSPost2010Prop55
280
     0
102
RTVSPost2010PropOp55
 70
     1
102
RTVSPost2010Prop56
140
1.0
102
RTVSPost2010PropOp56
 70
     1
102
RTVSPost2010Prop57
140
1.0
102
RTVSPost2010PropOp57
 70
     1
  0
XRECORD
  5
38D
102
{ACAD_REACTORS
330
38C
102
}
330
38C
100
AcDbXrecord
280
     1
102
RTVSPropertyOp0
 70
     1
102
RTVSPropertyOp1
 70
     1
102
RTVSPropertyOp2
 70
     1
102
RTVSPropertyOp3
 70
     1
102
RTVSPropertyOp4
 70
     1
102
RTVSPropertyOp5
 70
     1
102
RTVSPropertyOp6
 70
     1
102
RTVSPropertyOp7
 70
     1
102
RTVSPropertyOp8
 70
     1
102
RTVSPropertyOp9
 70
     1
102
RTVSPropertyOp10
 70
     1
102
RTVSPropertyOp11
 70
     1
102
RTVSPropertyOp12
 70
     1
102
RTVSPropertyOp13
 70
     1
102
RTVSPropertyOp14
 70
     1
102
RTVSPropertyOp15
 70
     1
102
RTVSPropertyOp16
 70
     1
102
RTVSPropertyOp17
 70
     1
102
RTVSPropertyOp18
 70
     1
102
RTVSPropertyOp19
 70
     1
102
RTVSPropertyOp20
 70
     1
102
RTVSPropertyOp21
 70
     1
102
RTVSPropertyOp22
 70
     1
102
RTVSPropertyOp23
 70
     1
102
RTVSPropertyOp24
 70
     1
102
RTVSPropertyOp25
 70
     1
102
RTVSPropertyOp26
 70
     1
102
RTVSPropertyOp27
 70
     1
102
RTVSPropertyOp28
 70
     1
102
RTVSPropertyOp29
 70
     1
102
RTVSPropertyOp30
 70
     1
102
RTVSPropertyOp31
 70
     1
102
RTVSPropertyOp32
 70
     1
102
RTVSPropertyOp33
 70
     1
102
RTVSPropertyOp34
 70
     1
102
RTVSPropertyOp35
 70
     1
102
RTVSPropertyOp36
 70
     1
102
RTVSPropertyOp37
 70
     1
102
RTVSPropertyOp38
 70
     1
102
RTVSPropertyOp39
 70
     1
102
RTVSPropertyOp40
 70
     1
102
RTVSPropertyOp41
 70
     1
102
RTVSPropertyOp42
 70
     1
102
RTVSPropertyOp43
 70
     1
102
RTVSPropertyOp44
 70
     1
102
RTVSPropertyOp45
 70
     1
102
RTVSPropertyOp46
 70
     1
102
RTVSPropertyOp47
 70
     1
102
RTVSPropertyOp48
 70
     1
102
RTVSPropertyOp49
 70
     1
102
RTVSPropertyOp50
 70
     1
102
RTVSPropertyOp51
 70
     0
102
RTVSPropertyOp52
 70
     0
102
RTVSPropertyOp53
 70
     1
102
RTVSPropertyOp54
 70
     1
102
RTVSPropertyOp55
 70
     1
102
RTVSPropertyOp56
 70
     1
102
RTVSPropertyOp57
 70
     1
102
RTVSPost2010Prop28
280
     0
102
RTVSPost2010PropOp28
 70
     1
102
RTVSPost2010Prop29
280
     1
102
RTVSPost2010PropOp29
 70
     1
102
RTVSPost2010Prop30
280
     1
102
RTVSPost2010PropOp30
 70
     1
102
RTVSPost2010Prop31
280
     0
102
RTVSPost2010PropOp31
 70
     1
102
RTVSPost2010Prop32
280
     0
102
RTVSPost2010PropOp32
 70
     1
102
RTVSPost2010Prop33
280
     0
102
RTVSPost2010PropOp33
 70
     1
102
RTVSPost2010Prop34
280
     0
102
RTVSPost2010PropOp34
 70
     1
102
RTVSPost2010Prop35
280
     0
102
RTVSPost2010PropOp35
 70
     1
102
RTVSPost2010Prop36
280
     0
102
RTVSPost2010PropOp36
 70
     1
102
RTVSPost2010Prop37
 90
       50
102
RTVSPost2010PropOp37
 70
     1
102
RTVSPost2010Prop38
140
0.0
102
RTVSPost2010PropOp38
 70
     1
102
RTVSPost2010Prop39
140
1.0
102
RTVSPost2010PropOp39
 70
     1
102
RTVSPost2010Prop40
 90
        0
102
RTVSPost2010PropOp40
 70
     1
102
RTVSPost2010Prop41ColorIndex
 90
       18
102
RTVSPost2010Prop41ColorRGB
 90
        0
102
RTVSPost2010PropOp41
 70
     1
102
RTVSPost2010Prop42
 90
       50
102
RTVSPost2010PropOp42
 70
     1
102
RTVSPost2010Prop43
 90
        3
102
RTVSPost2010PropOp43
 70
     1
102
RTVSPost2010Prop44ColorIndex
 90
        5
102
RTVSPost2010Prop44ColorRGB
 90
      255
102
RTVSPost2010PropOp44
 70
     1
102
RTVSPost2010Prop45
280
     0
102
RTVSPost2010PropOp45
 70
     1
102
RTVSPost2010Prop46
 90
       50
102
RTVSPost2010PropOp46
 70
     1
102
RTVSPost2010Prop47
 90
       50
102
RTVSPost2010PropOp47
 70
     1
102
RTVSPost2010Prop48
 90
       50
102
RTVSPost2010PropOp48
 70
     1
102
RTVSPost2010Prop49
280
     0
102
RTVSPost2010PropOp49
 70
     1
102
RTVSPost2010Prop50
 90
       50
102
RTVSPost2010PropOp50
 70
     1
102
RTVSPost2010Prop51ColorIndex
 90
      256
102
RTVSPost2010Prop51ColorRGB
 90
-16777216
102
RTVSPost2010PropOp51
 70
     0
102
RTVSPost2010Prop52
140
1.0
102
RTVSPost2010PropOp52
 70
     0
102
RTVSPost2010Prop53
 90
        2
102
RTVSPost2010PropOp53
 70
     1
102
RTVSPost2010Prop54
  1
strokes_ogs.tif
102
RTVSPost2010PropOp54
 70
     1
102
RTVSPost2010Prop55
280
     0
102
RTVSPost2010PropOp55
 70
     1
102
RTVSPost2010Prop56
140
1.0
102
RTVSPost2010PropOp56
 70
     1
102
RTVSPost2010Prop57
140
1.0
102
RTVSPost2010PropOp57
 70
     1
  0
XRECORD
  5
37D
102
{ACAD_REACTORS
330
37C
102
}
330
37C
100
AcDbXrecord
280
     1
102
RTVSPropertyOp0
 70
     1
102
RTVSPropertyOp1
 70
     1
102
RTVSPropertyOp2
 70
     1
102
RTVSPropertyOp3
 70
     1
102
RTVSPropertyOp4
 70
     1
102
RTVSPropertyOp5
 70
     1
102
RTVSPropertyOp6
 70
     1
102
RTVSPropertyOp7
 70
     1
102
RTVSPropertyOp8
 70
     1
102
RTVSPropertyOp9
 70
     1
102
RTVSPropertyOp10
 70
     1
102
RTVSPropertyOp11
 70
     1
102
RTVSPropertyOp12
 70
     1
102
RTVSPropertyOp13
 70
     1
102
RTVSPropertyOp14
 70
     1
102
RTVSPropertyOp15
 70
     1
102
RTVSPropertyOp16
 70
     1
102
RTVSPropertyOp17
 70
     1
102
RTVSPropertyOp18
 70
     1
102
RTVSPropertyOp19
 70
     1
102
RTVSPropertyOp20
 70
     1
102
RTVSPropertyOp21
 70
     1
102
RTVSPropertyOp22
 70
     1
102
RTVSPropertyOp23
 70
     1
102
RTVSPropertyOp24
 70
     1
102
RTVSPropertyOp25
 70
     1
102
RTVSPropertyOp26
 70
     1
102
RTVSPropertyOp27
 70
     1
102
RTVSPropertyOp28
 70
     1
102
RTVSPropertyOp29
 70
     1
102
RTVSPropertyOp30
 70
     1
102
RTVSPropertyOp31
 70
     1
102
RTVSPropertyOp32
 70
     1
102
RTVSPropertyOp33
 70
     1
102
RTVSPropertyOp34
 70
     1
102
RTVSPropertyOp35
 70
     1
102
RTVSPropertyOp36
 70
     1
102
RTVSPropertyOp37
 70
     1
102
RTVSPropertyOp38
 70
     1
102
RTVSPropertyOp39
 70
     1
102
RTVSPropertyOp40
 70
     1
102
RTVSPropertyOp41
 70
     1
102
RTVSPropertyOp42
 70
     1
102
RTVSPropertyOp43
 70
     1
102
RTVSPropertyOp44
 70
     1
102
RTVSPropertyOp45
 70
     1
102
RTVSPropertyOp46
 70
     1
102
RTVSPropertyOp47
 70
     1
102
RTVSPropertyOp48
 70
     1
102
RTVSPropertyOp49
 70
     1
102
RTVSPropertyOp50
 70
     1
102
RTVSPropertyOp51
 70
     0
102
RTVSPropertyOp52
 70
     0
102
RTVSPropertyOp53
 70
     1
102
RTVSPropertyOp54
 70
     1
102
RTVSPropertyOp55
 70
     1
102
RTVSPropertyOp56
 70
     1
102
RTVSPropertyOp57
 70
     1
102
RTVSPost2010Prop28
280
     0
102
RTVSPost2010PropOp28
 70
     1
102
RTVSPost2010Prop29
280
     1
102
RTVSPost2010PropOp29
 70
     1
102
RTVSPost2010Prop30
280
     1
102
RTVSPost2010PropOp30
 70
     1
102
RTVSPost2010Prop31
280
     0
102
RTVSPost2010PropOp31
 70
     1
102
RTVSPost2010Prop32
280
     0
102
RTVSPost2010PropOp32
 70
     1
102
RTVSPost2010Prop33
280
     0
102
RTVSPost2010PropOp33
 70
     1
102
RTVSPost2010Prop34
280
     0
102
RTVSPost2010PropOp34
 70
     1
102
RTVSPost2010Prop35
280
     0
102
RTVSPost2010PropOp35
 70
     1
102
RTVSPost2010Prop36
280
     0
102
RTVSPost2010PropOp36
 70
     1
102
RTVSPost2010Prop37
 90
       50
102
RTVSPost2010PropOp37
 70
     1
102
RTVSPost2010Prop38
140
0.0
102
RTVSPost2010PropOp38
 70
     1
102
RTVSPost2010Prop39
140
1.0
102
RTVSPost2010PropOp39
 70
     1
102
RTVSPost2010Prop40
 90
        0
102
RTVSPost2010PropOp40
 70
     1
102
RTVSPost2010Prop41ColorIndex
 90
       18
102
RTVSPost2010Prop41ColorRGB
 90
        0
102
RTVSPost2010PropOp41
 70
     1
102
RTVSPost2010Prop42
 90
       50
102
RTVSPost2010PropOp42
 70
     1
102
RTVSPost2010Prop43
 90
        3
102
RTVSPost2010PropOp43
 70
     1
102
RTVSPost2010Prop44ColorIndex
 90
        5
102
RTVSPost2010Prop44ColorRGB
 90
      255
102
RTVSPost2010PropOp44
 70
     1
102
RTVSPost2010Prop45
280
     0
102
RTVSPost2010PropOp45
 70
     1
102
RTVSPost2010Prop46
 90
       50
102
RTVSPost2010PropOp46
 70
     1
102
RTVSPost2010Prop47
 90
       50
102
RTVSPost2010PropOp47
 70
     1
102
RTVSPost2010Prop48
 90
       50
102
RTVSPost2010PropOp48
 70
     1
102
RTVSPost2010Prop49
280
     0
102
RTVSPost2010PropOp49
 70
     1
102
RTVSPost2010Prop50
 90
       50
102
RTVSPost2010PropOp50
 70
     1
102
RTVSPost2010Prop51ColorIndex
 90
      256
102
RTVSPost2010Prop51ColorRGB
 90
-16777216
102
RTVSPost2010PropOp51
 70
     0
102
RTVSPost2010Prop52
140
1.0
102
RTVSPost2010PropOp52
 70
     0
102
RTVSPost2010Prop53
 90
        2
102
RTVSPost2010PropOp53
 70
     1
102
RTVSPost2010Prop54
  1
strokes_ogs.tif
102
RTVSPost2010PropOp54
 70
     1
102
RTVSPost2010Prop55
280
     0
102
RTVSPost2010PropOp55
 70
     1
102
RTVSPost2010Prop56
140
1.0
102
RTVSPost2010PropOp56
 70
     1
102
RTVSPost2010Prop57
140
1.0
102
RTVSPost2010PropOp57
 70
     1
  0
XRECORD
  5
36F
102
{ACAD_REACTORS
330
36E
102
}
330
36E
100
AcDbXrecord
280
     1
102
RTVSPropertyOp0
 70
     1
102
RTVSPropertyOp1
 70
     1
102
RTVSPropertyOp2
 70
     1
102
RTVSPropertyOp3
 70
     1
102
RTVSPropertyOp4
 70
     1
102
RTVSPropertyOp5
 70
     1
102
RTVSPropertyOp6
 70
     1
102
RTVSPropertyOp7
 70
     1
102
RTVSPropertyOp8
 70
     1
102
RTVSPropertyOp9
 70
     1
102
RTVSPropertyOp10
 70
     1
102
RTVSPropertyOp11
 70
     1
102
RTVSPropertyOp12
 70
     1
102
RTVSPropertyOp13
 70
     1
102
RTVSPropertyOp14
 70
     1
102
RTVSPropertyOp15
 70
     1
102
RTVSPropertyOp16
 70
     1
102
RTVSPropertyOp17
 70
     1
102
RTVSPropertyOp18
 70
     1
102
RTVSPropertyOp19
 70
     1
102
RTVSPropertyOp20
 70
     1
102
RTVSPropertyOp21
 70
     1
102
RTVSPropertyOp22
 70
     1
102
RTVSPropertyOp23
 70
     1
102
RTVSPropertyOp24
 70
     1
102
RTVSPropertyOp25
 70
     1
102
RTVSPropertyOp26
 70
     1
102
RTVSPropertyOp27
 70
     1
102
RTVSPropertyOp28
 70
     1
102
RTVSPropertyOp29
 70
     1
102
RTVSPropertyOp30
 70
     1
102
RTVSPropertyOp31
 70
     1
102
RTVSPropertyOp32
 70
     1
102
RTVSPropertyOp33
 70
     1
102
RTVSPropertyOp34
 70
     1
102
RTVSPropertyOp35
 70
     1
102
RTVSPropertyOp36
 70
     1
102
RTVSPropertyOp37
 70
     1
102
RTVSPropertyOp38
 70
     1
102
RTVSPropertyOp39
 70
     1
102
RTVSPropertyOp40
 70
     1
102
RTVSPropertyOp41
 70
     1
102
RTVSPropertyOp42
 70
     1
102
RTVSPropertyOp43
 70
     1
102
RTVSPropertyOp44
 70
     1
102
RTVSPropertyOp45
 70
     1
102
RTVSPropertyOp46
 70
     1
102
RTVSPropertyOp47
 70
     1
102
RTVSPropertyOp48
 70
     1
102
RTVSPropertyOp49
 70
     1
102
RTVSPropertyOp50
 70
     1
102
RTVSPropertyOp51
 70
     0
102
RTVSPropertyOp52
 70
     0
102
RTVSPropertyOp53
 70
     1
102
RTVSPropertyOp54
 70
     1
102
RTVSPropertyOp55
 70
     1
102
RTVSPropertyOp56
 70
     1
102
RTVSPropertyOp57
 70
     1
102
RTVSPost2010Prop28
280
     0
102
RTVSPost2010PropOp28
 70
     1
102
RTVSPost2010Prop29
280
     1
102
RTVSPost2010PropOp29
 70
     1
102
RTVSPost2010Prop30
280
     1
102
RTVSPost2010PropOp30
 70
     1
102
RTVSPost2010Prop31
280
     0
102
RTVSPost2010PropOp31
 70
     1
102
RTVSPost2010Prop32
280
     0
102
RTVSPost2010PropOp32
 70
     1
102
RTVSPost2010Prop33
280
     0
102
RTVSPost2010PropOp33
 70
     1
102
RTVSPost2010Prop34
280
     0
102
RTVSPost2010PropOp34
 70
     1
102
RTVSPost2010Prop35
280
     0
102
RTVSPost2010PropOp35
 70
     1
102
RTVSPost2010Prop36
280
     0
102
RTVSPost2010PropOp36
 70
     1
102
RTVSPost2010Prop37
 90
       50
102
RTVSPost2010PropOp37
 70
     1
102
RTVSPost2010Prop38
140
0.0
102
RTVSPost2010PropOp38
 70
     1
102
RTVSPost2010Prop39
140
1.0
102
RTVSPost2010PropOp39
 70
     1
102
RTVSPost2010Prop40
 90
        0
102
RTVSPost2010PropOp40
 70
     1
102
RTVSPost2010Prop41ColorIndex
 90
       18
102
RTVSPost2010Prop41ColorRGB
 90
        0
102
RTVSPost2010PropOp41
 70
     1
102
RTVSPost2010Prop42
 90
       50
102
RTVSPost2010PropOp42
 70
     1
102
RTVSPost2010Prop43
 90
        3
102
RTVSPost2010PropOp43
 70
     1
102
RTVSPost2010Prop44ColorIndex
 90
        5
102
RTVSPost2010Prop44ColorRGB
 90
      255
102
RTVSPost2010PropOp44
 70
     1
102
RTVSPost2010Prop45
280
     0
102
RTVSPost2010PropOp45
 70
     1
102
RTVSPost2010Prop46
 90
       50
102
RTVSPost2010PropOp46
 70
     1
102
RTVSPost2010Prop47
 90
       50
102
RTVSPost2010PropOp47
 70
     1
102
RTVSPost2010Prop48
 90
       50
102
RTVSPost2010PropOp48
 70
     1
102
RTVSPost2010Prop49
280
     0
102
RTVSPost2010PropOp49
 70
     1
102
RTVSPost2010Prop50
 90
       50
102
RTVSPost2010PropOp50
 70
     1
102
RTVSPost2010Prop51ColorIndex
 90
      256
102
RTVSPost2010Prop51ColorRGB
 90
-16777216
102
RTVSPost2010PropOp51
 70
     0
102
RTVSPost2010Prop52
140
1.0
102
RTVSPost2010PropOp52
 70
     0
102
RTVSPost2010Prop53
 90
        2
102
RTVSPost2010PropOp53
 70
     1
102
RTVSPost2010Prop54
  1
strokes_ogs.tif
102
RTVSPost2010PropOp54
 70
     1
102
RTVSPost2010Prop55
280
     0
102
RTVSPost2010PropOp55
 70
     1
102
RTVSPost2010Prop56
140
1.0
102
RTVSPost2010PropOp56
 70
     1
102
RTVSPost2010Prop57
140
1.0
102
RTVSPost2010PropOp57
 70
     1
  0
XRECORD
  5
38F
102
{ACAD_REACTORS
330
38E
102
}
330
38E
100
AcDbXrecord
280
     1
102
RTVSPropertyOp0
 70
     1
102
RTVSPropertyOp1
 70
     1
102
RTVSPropertyOp2
 70
     1
102
RTVSPropertyOp3
 70
     1
102
RTVSPropertyOp4
 70
     1
102
RTVSPropertyOp5
 70
     1
102
RTVSPropertyOp6
 70
     1
102
RTVSPropertyOp7
 70
     1
102
RTVSPropertyOp8
 70
     1
102
RTVSPropertyOp9
 70
     1
102
RTVSPropertyOp10
 70
     1
102
RTVSPropertyOp11
 70
     1
102
RTVSPropertyOp12
 70
     1
102
RTVSPropertyOp13
 70
     1
102
RTVSPropertyOp14
 70
     1
102
RTVSPropertyOp15
 70
     1
102
RTVSPropertyOp16
 70
     1
102
RTVSPropertyOp17
 70
     1
102
RTVSPropertyOp18
 70
     1
102
RTVSPropertyOp19
 70
     1
102
RTVSPropertyOp20
 70
     1
102
RTVSPropertyOp21
 70
     1
102
RTVSPropertyOp22
 70
     1
102
RTVSPropertyOp23
 70
     1
102
RTVSPropertyOp24
 70
     1
102
RTVSPropertyOp25
 70
     1
102
RTVSPropertyOp26
 70
     1
102
RTVSPropertyOp27
 70
     1
102
RTVSPropertyOp28
 70
     1
102
RTVSPropertyOp29
 70
     1
102
RTVSPropertyOp30
 70
     1
102
RTVSPropertyOp31
 70
     1
102
RTVSPropertyOp32
 70
     1
102
RTVSPropertyOp33
 70
     1
102
RTVSPropertyOp34
 70
     1
102
RTVSPropertyOp35
 70
     1
102
RTVSPropertyOp36
 70
     1
102
RTVSPropertyOp37
 70
     1
102
RTVSPropertyOp38
 70
     1
102
RTVSPropertyOp39
 70
     1
102
RTVSPropertyOp40
 70
     1
102
RTVSPropertyOp41
 70
     1
102
RTVSPropertyOp42
 70
     1
102
RTVSPropertyOp43
 70
     1
102
RTVSPropertyOp44
 70
     1
102
RTVSPropertyOp45
 70
     1
102
RTVSPropertyOp46
 70
     1
102
RTVSPropertyOp47
 70
     1
102
RTVSPropertyOp48
 70
     1
102
RTVSPropertyOp49
 70
     1
102
RTVSPropertyOp50
 70
     1
102
RTVSPropertyOp51
 70
     0
102
RTVSPropertyOp52
 70
     0
102
RTVSPropertyOp53
 70
     1
102
RTVSPropertyOp54
 70
     1
102
RTVSPropertyOp55
 70
     1
102
RTVSPropertyOp56
 70
     1
102
RTVSPropertyOp57
 70
     1
102
RTVSPost2010Prop28
280
     0
102
RTVSPost2010PropOp28
 70
     1
102
RTVSPost2010Prop29
280
     1
102
RTVSPost2010PropOp29
 70
     1
102
RTVSPost2010Prop30
280
     1
102
RTVSPost2010PropOp30
 70
     1
102
RTVSPost2010Prop31
280
     0
102
RTVSPost2010PropOp31
 70
     1
102
RTVSPost2010Prop32
280
     0
102
RTVSPost2010PropOp32
 70
     1
102
RTVSPost2010Prop33
280
     0
102
RTVSPost2010PropOp33
 70
     1
102
RTVSPost2010Prop34
280
     0
102
RTVSPost2010PropOp34
 70
     1
102
RTVSPost2010Prop35
280
     0
102
RTVSPost2010PropOp35
 70
     1
102
RTVSPost2010Prop36
280
     0
102
RTVSPost2010PropOp36
 70
     1
102
RTVSPost2010Prop37
 90
       50
102
RTVSPost2010PropOp37
 70
     1
102
RTVSPost2010Prop38
140
0.0
102
RTVSPost2010PropOp38
 70
     1
102
RTVSPost2010Prop39
140
1.0
102
RTVSPost2010PropOp39
 70
     1
102
RTVSPost2010Prop40
 90
        0
102
RTVSPost2010PropOp40
 70
     1
102
RTVSPost2010Prop41ColorIndex
 90
       18
102
RTVSPost2010Prop41ColorRGB
 90
        0
102
RTVSPost2010PropOp41
 70
     1
102
RTVSPost2010Prop42
 90
       50
102
RTVSPost2010PropOp42
 70
     1
102
RTVSPost2010Prop43
 90
        3
102
RTVSPost2010PropOp43
 70
     1
102
RTVSPost2010Prop44ColorIndex
 90
        5
102
RTVSPost2010Prop44ColorRGB
 90
      255
102
RTVSPost2010PropOp44
 70
     1
102
RTVSPost2010Prop45
280
     0
102
RTVSPost2010PropOp45
 70
     1
102
RTVSPost2010Prop46
 90
       50
102
RTVSPost2010PropOp46
 70
     1
102
RTVSPost2010Prop47
 90
       50
102
RTVSPost2010PropOp47
 70
     1
102
RTVSPost2010Prop48
 90
       50
102
RTVSPost2010PropOp48
 70
     1
102
RTVSPost2010Prop49
280
     0
102
RTVSPost2010PropOp49
 70
     1
102
RTVSPost2010Prop50
 90
       50
102
RTVSPost2010PropOp50
 70
     1
102
RTVSPost2010Prop51ColorIndex
 90
      256
102
RTVSPost2010Prop51ColorRGB
 90
-16777216
102
RTVSPost2010PropOp51
 70
     0
102
RTVSPost2010Prop52
140
1.0
102
RTVSPost2010PropOp52
 70
     0
102
RTVSPost2010Prop53
 90
        2
102
RTVSPost2010PropOp53
 70
     1
102
RTVSPost2010Prop54
  1
strokes_ogs.tif
102
RTVSPost2010PropOp54
 70
     1
102
RTVSPost2010Prop55
280
     0
102
RTVSPost2010PropOp55
 70
     1
102
RTVSPost2010Prop56
140
1.0
102
RTVSPost2010PropOp56
 70
     1
102
RTVSPost2010Prop57
140
1.0
102
RTVSPost2010PropOp57
 70
     1
  0
ENDSEC
  0
EOF
