  0
SECTION
  2
HEADER
  9
$ACADVER
  1
AC1015
  9
$ACADMAINTVER
 70
     6
  9
$DWGCODEPAGE
  3
ANSI_932
  9
$INSBASE
 10
0.0
 20
0.0
 30
0.0
  9
$EXTMIN
 10
-119.197552317643
 20
-42.9874825390125
 30
0.0
  9
$EXTMAX
 10
125.342699305996
 20
130.715636021843
 30
0.0
  9
$LIMMIN
 10
0.0
 20
0.0
  9
$LIMMAX
 10
12.0
 20
9.0
  9
$ORTHOMODE
 70
     0
  9
$REGENMODE
 70
     1
  9
$FILLMODE
 70
     1
  9
$QTEXTMODE
 70
     0
  9
$MIRRTEXT
 70
     1
  9
$LTSCALE
 40
1.0
  9
$ATTMODE
 70
     1
  9
$TEXTSIZE
 40
0.2
  9
$TRACEWID
 40
0.05
  9
$TEXTSTYLE
  7
Standard
  9
$CLAYER
  8
0
  9
$CELTYPE
  6
ByLayer
  9
$CECOLOR
 62
   256
  9
$CELTSCALE
 40
1.0
  9
$DISPSILH
 70
     0
  9
$DIMSCALE
 40
1.0
  9
$DIMASZ
 40
0.18
  9
$DIMEXO
 40
0.0625
  9
$DIMDLI
 40
0.38
  9
$DIMRND
 40
0.0
  9
$DIMDLE
 40
0.0
  9
$DIMEXE
 40
0.18
  9
$DIMTP
 40
0.0
  9
$DIMTM
 40
0.0
  9
$DIMTXT
 40
0.18
  9
$DIMCEN
 40
0.09
  9
$DIMTSZ
 40
0.0
  9
$DIMTOL
 70
     0
  9
$DIMLIM
 70
     0
  9
$DIMTIH
 70
     1
  9
$DIMTOH
 70
     1
  9
$DIMSE1
 70
     0
  9
$DIMSE2
 70
     0
  9
$DIMTAD
 70
     0
  9
$DIMZIN
 70
     0
  9
$DIMBLK
  1

  9
$DIMASO
 70
     1
  9
$DIMSHO
 70
     1
  9
$DIMPOST
  1

  9
$DIMAPOST
  1

  9
$DIMALT
 70
     0
  9
$DIMALTD
 70
     2
  9
$DIMALTF
 40
25.4
  9
$DIMLFAC
 40
1.0
  9
$DIMTOFL
 70
     0
  9
$DIMTVP
 40
0.0
  9
$DIMTIX
 70
     0
  9
$DIMSOXD
 70
     0
  9
$DIMSAH
 70
     0
  9
$DIMBLK1
  1

  9
$DIMBLK2
  1

  9
$DIMSTYLE
  2
Standard
  9
$DIMCLRD
 70
     0
  9
$DIMCLRE
 70
     0
  9
$DIMCLRT
 70
     0
  9
$DIMTFAC
 40
1.0
  9
$DIMGAP
 40
0.09
  9
$DIMJUST
 70
     0
  9
$DIMSD1
 70
     0
  9
$DIMSD2
 70
     0
  9
$DIMTOLJ
 70
     1
  9
$DIMTZIN
 70
     0
  9
$DIMALTZ
 70
     0
  9
$DIMALTTZ
 70
     0
  9
$DIMUPT
 70
     0
  9
$DIMDEC
 70
     4
  9
$DIMTDEC
 70
     4
  9
$DIMALTU
 70
     2
  9
$DIMALTTD
 70
     2
  9
$DIMTXSTY
  7
Standard
  9
$DIMAUNIT
 70
     0
  9
$DIMADEC
 70
     0
  9
$DIMALTRND
 40
0.0
  9
$DIMAZIN
 70
     0
  9
$DIMDSEP
 70
    46
  9
$DIMATFIT
 70
     3
  9
$DIMFRAC
 70
     0
  9
$DIMLDRBLK
  1

  9
$DIMLUNIT
 70
     2
  9
$DIMLWD
 70
    -2
  9
$DIMLWE
 70
    -2
  9
$DIMTMOVE
 70
     0
  9
$LUNITS
 70
     2
  9
$LUPREC
 70
     4
  9
$SKETCHINC
 40
0.1
  9
$FILLETRAD
 40
0.5
  9
$AUNITS
 70
     0
  9
$AUPREC
 70
     0
  9
$MENU
  1
.
  9
$ELEVATION
 40
0.0
  9
$PELEVATION
 40
0.0
  9
$THICKNESS
 40
0.0
  9
$LIMCHECK
 70
     0
  9
$CHAMFERA
 40
0.0
  9
$CHAMFERB
 40
0.0
  9
$CHAMFERC
 40
0.0
  9
$CHAMFERD
 40
0.0
  9
$SKPOLY
 70
     0
  9
$TDCREATE
 40
2458080.566225903
  9
$TDUCREATE
 40
2458080.191225903
  9
$TDUPDATE
 40
2458080.566227164
  9
$TDUUPDATE
 40
2458080.191227164
  9
$TDINDWG
 40
0.0000000116
  9
$TDUSRTIMER
 40
0.0000000116
  9
$USRTIMER
 70
     1
  9
$ANGBASE
 50
0.0
  9
$ANGDIR
 70
     0
  9
$PDMODE
 70
     0
  9
$PDSIZE
 40
0.0
  9
$PLINEWID
 40
0.0
  9
$SPLFRAME
 70
     0
  9
$SPLINETYPE
 70
     6
  9
$SPLINESEGS
 70
     8
  9
$HANDSEED
  5
4C1
  9
$SURFTAB1
 70
     6
  9
$SURFTAB2
 70
     6
  9
$SURFTYPE
 70
     6
  9
$SURFU
 70
     6
  9
$SURFV
 70
     6
  9
$UCSBASE
  2

  9
$UCSNAME
  2

  9
$UCSORG
 10
0.0
 20
0.0
 30
0.0
  9
$UCSXDIR
 10
1.0
 20
0.0
 30
0.0
  9
$UCSYDIR
 10
0.0
 20
1.0
 30
0.0
  9
$UCSORTHOREF
  2

  9
$UCSORTHOVIEW
 70
     0
  9
$UCSORGTOP
 10
0.0
 20
0.0
 30
0.0
  9
$UCSORGBOTTOM
 10
0.0
 20
0.0
 30
0.0
  9
$UCSORGLEFT
 10
0.0
 20
0.0
 30
0.0
  9
$UCSORGRIGHT
 10
0.0
 20
0.0
 30
0.0
  9
$UCSORGFRONT
 10
0.0
 20
0.0
 30
0.0
  9
$UCSORGBACK
 10
0.0
 20
0.0
 30
0.0
  9
$PUCSBASE
  2

  9
$PUCSNAME
  2

  9
$PUCSORG
 10
0.0
 20
0.0
 30
0.0
  9
$PUCSXDIR
 10
1.0
 20
0.0
 30
0.0
  9
$PUCSYDIR
 10
0.0
 20
1.0
 30
0.0
  9
$PUCSORTHOREF
  2

  9
$PUCSORTHOVIEW
 70
     0
  9
$PUCSORGTOP
 10
0.0
 20
0.0
 30
0.0
  9
$PUCSORGBOTTOM
 10
0.0
 20
0.0
 30
0.0
  9
$PUCSORGLEFT
 10
0.0
 20
0.0
 30
0.0
  9
$PUCSORGRIGHT
 10
0.0
 20
0.0
 30
0.0
  9
$PUCSORGFRONT
 10
0.0
 20
0.0
 30
0.0
  9
$PUCSORGBACK
 10
0.0
 20
0.0
 30
0.0
  9
$USERI1
 70
     0
  9
$USERI2
 70
     0
  9
$USERI3
 70
     0
  9
$USERI4
 70
     0
  9
$USERI5
 70
     0
  9
$USERR1
 40
19.0
  9
$USERR2
 40
0.0
  9
$USERR3
 40
0.0
  9
$USERR4
 40
0.0
  9
$USERR5
 40
0.0
  9
$WORLDVIEW
 70
     1
  9
$SHADEDGE
 70
     3
  9
$SHADEDIF
 70
    70
  9
$TILEMODE
 70
     1
  9
$MAXACTVP
 70
    64
  9
$PINSBASE
 10
0.0
 20
0.0
 30
0.0
  9
$PLIMCHECK
 70
     0
  9
$PEXTMIN
 10
1.00000000000000E+20
 20
1.00000000000000E+20
 30
1.00000000000000E+20
  9
$PEXTMAX
 10
-1.00000000000000E+20
 20
-1.00000000000000E+20
 30
-1.00000000000000E+20
  9
$PLIMMIN
 10
0.0
 20
0.0
  9
$PLIMMAX
 10
12.0
 20
9.0
  9
$UNITMODE
 70
     0
  9
$VISRETAIN
 70
     1
  9
$PLINEGEN
 70
     0
  9
$PSLTSCALE
 70
     1
  9
$TREEDEPTH
 70
  3020
  9
$CMLSTYLE
  2
Standard
  9
$CMLJUST
 70
     0
  9
$CMLSCALE
 40
1.0
  9
$PROXYGRAPHICS
 70
     1
  9
$MEASUREMENT
 70
     1
  9
$CELWEIGHT
370
    -1
  9
$ENDCAPS
280
     0
  9
$JOINSTYLE
280
     0
  9
$LWDISPLAY
290
     0
  9
$INSUNITS
 70
     4
  9
$HYPERLINKBASE
  1

  9
$STYLESHEET
  1

  9
$XEDIT
290
     1
  9
$CEPSNTYPE
380
     0
  9
$PSTYLEMODE
290
     1
  9
$FINGERPRINTGUID
  2
{C7D186FB-9A05-4711-8A83-18140324B4AC}
  9
$VERSIONGUID
  2
{FAEB1C32-E019-11D5-929B-00C0DF256EC4}
  9
$EXTNAMES
290
     1
  9
$PSVPSCALE
 40
0.0
  9
$OLESTARTUP
290
     0
  0
ENDSEC
  0
SECTION
  2
CLASSES
  0
CLASS
  1
ACDBDICTIONARYWDFLT
  2
AcDbDictionaryWithDefault
  3
ObjectDBX Classes
 90
        0
280
     0
281
     0
  0
CLASS
  1
VISUALSTYLE
  2
AcDbVisualStyle
  3
ObjectDBX Classes
 90
     4095
280
     0
281
     0
  0
CLASS
  1
MATERIAL
  2
AcDbMaterial
  3
ObjectDBX Classes
 90
     1153
280
     0
281
     0
  0
CLASS
  1
SCALE
  2
AcDbScale
  3
ObjectDBX Classes
 90
     1153
280
     0
281
     0
  0
CLASS
  1
SUN
  2
AcDbSun
  3
SCENEOE
 90
     1153
280
     0
281
     0
  0
CLASS
  1
DICTIONARYVAR
  2
AcDbDictionaryVar
  3
ObjectDBX Classes
 90
        0
280
     0
281
     0
  0
CLASS
  1
ACDBPLACEHOLDER
  2
AcDbPlaceHolder
  3
ObjectDBX Classes
 90
        0
280
     0
281
     0
  0
CLASS
  1
LAYOUT
  2
AcDbLayout
  3
ObjectDBX Classes
 90
        0
280
     0
281
     0
  0
ENDSEC
  0
SECTION
  2
TABLES
  0
TABLE
  2
VPORT
  5
8
330
0
100
AcDbSymbolTable
 70
     1
  0
VPORT
  5
29
330
8
100
AcDbSymbolTableRecord
100
AcDbViewportTableRecord
  2
*Active
 70
     0
 10
0.0
 20
0.0
 11
1.0
 21
1.0
 12
3.0725734941765
 22
43.86407674141526
 13
0.0
 23
0.0
 14
0.5
 24
0.5
 15
0.5
 25
0.5
 16
0.0
 26
0.0
 36
1.0
 17
0.0
 27
0.0
 37
0.0
 40
191.0734304169411
 41
1.60267857142857
 42
50.0
 43
0.0
 44
0.0
 50
0.0
 51
0.0
 71
     0
 72
   100
 73
     1
 74
     3
 75
     0
 76
     0
 77
     0
 78
     0
281
     0
 65
     1
110
0.0
120
0.0
130
0.0
111
1.0
121
0.0
131
0.0
112
0.0
122
1.0
132
0.0
 79
     0
146
0.0
  0
ENDTAB
  0
TABLE
  2
LTYPE
  5
5
330
0
100
AcDbSymbolTable
 70
     8
  0
LTYPE
  5
14
330
5
100
AcDbSymbolTableRecord
100
AcDbLinetypeTableRecord
  2
ByBlock
 70
     0
  3

 72
    65
 73
     0
 40
0.0
  0
LTYPE
  5
15
330
5
100
AcDbSymbolTableRecord
100
AcDbLinetypeTableRecord
  2
ByLayer
 70
     0
  3

 72
    65
 73
     0
 40
0.0
  0
LTYPE
  5
16
330
5
100
AcDbSymbolTableRecord
100
AcDbLinetypeTableRecord
  2
Continuous
 70
     0
  3
Solid line
 72
    65
 73
     0
 40
0.0
  0
LTYPE
  5
6A
330
5
100
AcDbSymbolTableRecord
100
AcDbLinetypeTableRecord
  2
DASHED
 70
     0
  3
Dashed
 72
    65
 73
     2
 40
15.0
 49
7.0
 74
     0
 49
-8.0
 74
     0
  0
LTYPE
  5
6B
330
5
100
AcDbSymbolTableRecord
100
AcDbLinetypeTableRecord
  2
DOTTED
 70
     0
  3
Dotted
 72
    65
 73
     2
 40
1.0
 49
0.0
 74
     0
 49
-1.0
 74
     0
  0
LTYPE
  5
6C
330
5
100
AcDbSymbolTableRecord
100
AcDbLinetypeTableRecord
  2
DOT_CENTER
 70
     0
  3
Dot_Center
 72
    65
 73
     4
 40
14.0
 49
12.0
 74
     0
 49
-1.0
 74
     0
 49
0.0
 74
     0
 49
-1.0
 74
     0
  0
LTYPE
  5
6D
330
5
100
AcDbSymbolTableRecord
100
AcDbLinetypeTableRecord
  2
LONG_DASHED
 70
     0
  3
Long_Dashed
 72
    65
 73
     2
 40
15.0
 49
10.0
 74
     0
 49
-5.0
 74
     0
  0
LTYPE
  5
6E
330
5
100
AcDbSymbolTableRecord
100
AcDbLinetypeTableRecord
  2
DASH_CENTER
 70
     0
  3
Dash_Center
 72
    65
 73
     4
 40
14.0
 49
11.0
 74
     0
 49
-1.0
 74
     0
 49
1.0
 74
     0
 49
-1.0
 74
     0
  0
LTYPE
  5
6F
330
5
100
AcDbSymbolTableRecord
100
AcDbLinetypeTableRecord
  2
PHANTOM
 70
     0
  3
Phantom
 72
    65
 73
     6
 40
13.0
 49
10.0
 74
     0
 49
-1.0
 74
     0
 49
0.0
 74
     0
 49
-1.0
 74
     0
 49
0.0
 74
     0
 49
-1.0
 74
     0
  0
LTYPE
  5
70
330
5
100
AcDbSymbolTableRecord
100
AcDbLinetypeTableRecord
  2
CENTER_DASH_DASH
 70
     0
  3
Center_Dash_Dash
 72
    65
 73
     6
 40
14.0
 49
9.0
 74
     0
 49
-1.0
 74
     0
 49
1.0
 74
     0
 49
-1.0
 74
     0
 49
1.0
 74
     0
 49
-1.0
 74
     0
  0
ENDTAB
  0
TABLE
  2
LAYER
  5
2
330
0
100
AcDbSymbolTable
 70
     2
  0
LAYER
  5
10
330
2
100
AcDbSymbolTableRecord
100
AcDbLayerTableRecord
  2
0
 70
     0
 62
     7
  6
Continuous
370
    -3
390
F
  0
LAYER
  5
71
330
2
100
AcDbSymbolTableRecord
100
AcDbLayerTableRecord
  2
1
 70
     0
 62
     7
  6
Continuous
370
    -3
390
F
  0
ENDTAB
  0
TABLE
  2
STYLE
  5
3
330
0
100
AcDbSymbolTable
 70
     1
  0
STYLE
  5
11
330
3
100
AcDbSymbolTableRecord
100
AcDbTextStyleTableRecord
  2
Standard
 70
     0
 40
0.0
 41
1.0
 50
0.0
 71
     0
 42
0.2
  3
txt
  4

  0
ENDTAB
  0
TABLE
  2
VIEW
  5
6
330
0
100
AcDbSymbolTable
 70
     0
  0
ENDTAB
  0
TABLE
  2
UCS
  5
7
330
0
100
AcDbSymbolTable
 70
     0
  0
ENDTAB
  0
TABLE
  2
APPID
  5
9
330
0
100
AcDbSymbolTable
 70
     1
  0
APPID
  5
12
330
9
100
AcDbSymbolTableRecord
100
AcDbRegAppTableRecord
  2
ACAD
 70
     0
  0
ENDTAB
  0
TABLE
  2
DIMSTYLE
  5
A
330
0
100
AcDbSymbolTable
 70
     1
100
AcDbDimStyleTable
  0
DIMSTYLE
105
27
330
A
100
AcDbSymbolTableRecord
100
AcDbDimStyleTableRecord
  2
Standard
 70
     0
178
     0
340
11
  0
ENDTAB
  0
TABLE
  2
BLOCK_RECORD
  5
1
330
0
100
AcDbSymbolTable
 70
     1
  0
BLOCK_RECORD
  5
1F
330
1
100
AcDbSymbolTableRecord
100
AcDbBlockTableRecord
  2
*Model_Space
340
22
  0
BLOCK_RECORD
  5
1B
330
1
100
AcDbSymbolTableRecord
100
AcDbBlockTableRecord
  2
*Paper_Space
340
1E
  0
BLOCK_RECORD
  5
23
330
1
100
AcDbSymbolTableRecord
100
AcDbBlockTableRecord
  2
*Paper_Space0
340
26
  0
ENDTAB
  0
ENDSEC
  0
SECTION
  2
BLOCKS
  0
BLOCK
  5
20
330
1F
100
AcDbEntity
  8
0
100
AcDbBlockBegin
  2
*Model_Space
 70
     0
 10
0.0
 20
0.0
 30
0.0
  3
*Model_Space
  1
*Model_Space
  0
ENDBLK
  5
21
330
1F
100
AcDbEntity
  8
0
100
AcDbBlockEnd
  0
BLOCK
  5
1C
330
1B
100
AcDbEntity
 67
     1
  8
0
100
AcDbBlockBegin
  2
*Paper_Space
 70
     0
 10
0.0
 20
0.0
 30
0.0
  3
*Paper_Space
  1
*Paper_Space
  0
ENDBLK
  5
1D
330
1B
100
AcDbEntity
 67
     1
  8
0
100
AcDbBlockEnd
  0
BLOCK
  5
24
330
23
100
AcDbEntity
  8
0
100
AcDbBlockBegin
  2
*Paper_Space0
 70
     0
 10
0.0
 20
0.0
 30
0.0
  3
*Paper_Space0
  1
*Paper_Space0
  0
ENDBLK
  5
25
330
23
100
AcDbEntity
  8
0
100
AcDbBlockEnd
  0
ENDSEC
  0
SECTION
  2
ENTITIES
  0
LINE
  5
72
330
1F
100
AcDbEntity
  8
1
  6
Continuous
 62
     3
100
AcDbLine
 10
40.4799925995931
 20
-42.6874825390125
 30
0.0
 11
40.1599925995931
 21
-42.4874825390125
 31
0.0
  0
LINE
  5
73
330
1F
100
AcDbEntity
  8
1
  6
Continuous
 62
     3
100
AcDbLine
 10
40.7999925995931
 20
-42.9874825390125
 30
0.0
 11
40.4799925995931
 21
-42.6874825390125
 31
0.0
  0
LINE
  5
74
330
1F
100
AcDbEntity
  8
1
  6
Continuous
 62
     3
100
AcDbLine
 10
41.1999925995931
 20
-42.9874825390125
 30
0.0
 11
40.7999925995931
 21
-42.9874825390125
 31
0.0
  0
LINE
  5
75
330
1F
100
AcDbEntity
  8
1
  6
Continuous
 62
     3
100
AcDbLine
 10
41.5199925995931
 20
-42.9874825390125
 30
0.0
 11
41.1999925995931
 21
-42.9874825390125
 31
0.0
  0
LINE
  5
76
330
1F
100
AcDbEntity
  8
1
  6
Continuous
 62
     3
100
AcDbLine
 10
41.7599925995931
 20
-42.6874825390125
 30
0.0
 11
41.5199925995931
 21
-42.9874825390125
 31
0.0
  0
LINE
  5
77
330
1F
100
AcDbEntity
  8
1
  6
Continuous
 62
     3
100
AcDbLine
 10
41.9199925995931
 20
-42.4874825390125
 30
0.0
 11
41.7599925995931
 21
-42.6874825390125
 31
0.0
  0
LINE
  5
78
330
1F
100
AcDbEntity
  8
1
  6
Continuous
 62
     3
100
AcDbLine
 10
42.0799925995931
 20
-41.7874825390125
 30
0.0
 11
41.9199925995931
 21
-42.4874825390125
 31
0.0
  0
LINE
  5
79
330
1F
100
AcDbEntity
  8
1
  6
Continuous
 62
     3
100
AcDbLine
 10
41.9199925995931
 20
-41.0874825390125
 30
0.0
 11
42.0799925995931
 21
-41.7874825390125
 31
0.0
  0
LINE
  5
7A
330
1F
100
AcDbEntity
  8
1
  6
Continuous
 62
     3
100
AcDbLine
 10
41.7599925995931
 20
-40.8874825390126
 30
0.0
 11
41.9199925995931
 21
-41.0874825390125
 31
0.0
  0
LINE
  5
7B
330
1F
100
AcDbEntity
  8
1
  6
Continuous
 62
     3
100
AcDbLine
 10
41.5199925995931
 20
-40.5874825390125
 30
0.0
 11
41.7599925995931
 21
-40.8874825390126
 31
0.0
  0
LINE
  5
7C
330
1F
100
AcDbEntity
  8
1
  6
Continuous
 62
     3
100
AcDbLine
 10
41.1199925995931
 20
-40.4874825390125
 30
0.0
 11
41.5199925995931
 21
-40.5874825390125
 31
0.0
  0
LINE
  5
7D
330
1F
100
AcDbEntity
  8
1
  6
Continuous
 62
     3
100
AcDbLine
 10
40.7199925995931
 20
-40.5874825390125
 30
0.0
 11
41.1199925995931
 21
-40.4874825390125
 31
0.0
  0
LINE
  5
7E
330
1F
100
AcDbEntity
  8
1
  6
Continuous
 62
     3
100
AcDbLine
 10
40.2399925995931
 20
-40.9874825390125
 30
0.0
 11
40.7199925995931
 21
-40.5874825390125
 31
0.0
  0
LINE
  5
7F
330
1F
100
AcDbEntity
  8
1
  6
Continuous
 62
     3
100
AcDbLine
 10
40.3199925995931
 20
-38.9874825390125
 30
0.0
 11
40.2399925995931
 21
-40.9874825390125
 31
0.0
  0
LINE
  5
80
330
1F
100
AcDbEntity
  8
1
  6
Continuous
 62
     3
100
AcDbLine
 10
41.9199925995931
 20
-38.9874825390125
 30
0.0
 11
40.3199925995931
 21
-38.9874825390125
 31
0.0
  0
LINE
  5
81
330
1F
100
AcDbEntity
  8
1
  6
Continuous
 62
     3
100
AcDbLine
 10
36.3999925995931
 20
-42.9874825390125
 30
0.0
 11
38.4799925995931
 21
-42.9874825390125
 31
0.0
  0
LINE
  5
82
330
1F
100
AcDbEntity
  8
1
  6
Continuous
 62
     3
100
AcDbLine
 10
36.5599925995931
 20
-42.2874825390125
 30
0.0
 11
36.3999925995931
 21
-42.9874825390125
 31
0.0
  0
LINE
  5
83
330
1F
100
AcDbEntity
  8
1
  6
Continuous
 62
     3
100
AcDbLine
 10
36.7999925995931
 20
-41.8874825390126
 30
0.0
 11
36.5599925995931
 21
-42.2874825390125
 31
0.0
  0
LINE
  5
84
330
1F
100
AcDbEntity
  8
1
  6
Continuous
 62
     3
100
AcDbLine
 10
37.1199925995931
 20
-41.4874825390125
 30
0.0
 11
36.7999925995931
 21
-41.8874825390126
 31
0.0
  0
LINE
  5
85
330
1F
100
AcDbEntity
  8
1
  6
Continuous
 62
     3
100
AcDbLine
 10
37.5199925995931
 20
-41.2874825390125
 30
0.0
 11
37.1199925995931
 21
-41.4874825390125
 31
0.0
  0
LINE
  5
86
330
1F
100
AcDbEntity
  8
1
  6
Continuous
 62
     3
100
AcDbLine
 10
37.9999925995931
 20
-40.8874825390126
 30
0.0
 11
37.5199925995931
 21
-41.2874825390125
 31
0.0
  0
LINE
  5
87
330
1F
100
AcDbEntity
  8
1
  6
Continuous
 62
     3
100
AcDbLine
 10
38.3199925995931
 20
-40.2874825390125
 30
0.0
 11
37.9999925995931
 21
-40.8874825390126
 31
0.0
  0
LINE
  5
88
330
1F
100
AcDbEntity
  8
1
  6
Continuous
 62
     3
100
AcDbLine
 10
38.3999925995931
 20
-39.7874825390125
 30
0.0
 11
38.3199925995931
 21
-40.2874825390125
 31
0.0
  0
LINE
  5
89
330
1F
100
AcDbEntity
  8
1
  6
Continuous
 62
     3
100
AcDbLine
 10
37.9999925995931
 20
-39.2874825390125
 30
0.0
 11
38.3999925995931
 21
-39.7874825390125
 31
0.0
  0
LINE
  5
8A
330
1F
100
AcDbEntity
  8
1
  6
Continuous
 62
     3
100
AcDbLine
 10
37.4399925995931
 20
-38.9874825390125
 30
0.0
 11
37.9999925995931
 21
-39.2874825390125
 31
0.0
  0
LINE
  5
8B
330
1F
100
AcDbEntity
  8
1
  6
Continuous
 62
     3
100
AcDbLine
 10
36.8799925995931
 20
-39.2874825390125
 30
0.0
 11
37.4399925995931
 21
-38.9874825390125
 31
0.0
  0
LINE
  5
8C
330
1F
100
AcDbEntity
  8
1
  6
Continuous
 62
     3
100
AcDbLine
 10
36.4799925995931
 20
-39.7874825390125
 30
0.0
 11
36.8799925995931
 21
-39.2874825390125
 31
0.0
  0
LINE
  5
8D
330
1F
100
AcDbEntity
  8
1
  6
Continuous
 62
     3
100
AcDbLine
 10
32.7199925995931
 20
-40.9874825390125
 30
0.0
 11
34.3999925995931
 21
-40.9874825390125
 31
0.0
  0
LINE
  5
8E
330
1F
100
AcDbEntity
  8
1
  6
Continuous
 62
     3
100
AcDbLine
 10
29.9999925995931
 20
-38.9874825390125
 30
0.0
 11
29.9999925995931
 21
-42.9874825390125
 31
0.0
  0
LINE
  5
8F
330
1F
100
AcDbEntity
  8
1
  6
Continuous
 62
     3
100
AcDbLine
 10
29.5199925995931
 20
-39.3874825390126
 30
0.0
 11
29.9999925995931
 21
-38.9874825390125
 31
0.0
  0
LINE
  5
90
330
1F
100
AcDbEntity
  8
1
  6
Continuous
 62
     3
100
AcDbLine
 10
26.6399925995931
 20
-39.2874825390125
 30
0.0
 11
26.0799925995931
 21
-38.9874825390125
 31
0.0
  0
LINE
  5
91
330
1F
100
AcDbEntity
  8
1
  6
Continuous
 62
     3
100
AcDbLine
 10
27.0399925995931
 20
-39.8874825390126
 30
0.0
 11
26.6399925995931
 21
-39.2874825390125
 31
0.0
  0
LINE
  5
92
330
1F
100
AcDbEntity
  8
1
  6
Continuous
 62
     3
100
AcDbLine
 10
27.1199925995931
 20
-40.9874825390125
 30
0.0
 11
27.0399925995931
 21
-39.8874825390126
 31
0.0
  0
LINE
  5
93
330
1F
100
AcDbEntity
  8
1
  6
Continuous
 62
     3
100
AcDbLine
 10
27.0399925995931
 20
-42.0874825390125
 30
0.0
 11
27.1199925995931
 21
-40.9874825390125
 31
0.0
  0
LINE
  5
94
330
1F
100
AcDbEntity
  8
1
  6
Continuous
 62
     3
100
AcDbLine
 10
26.6399925995931
 20
-42.6874825390125
 30
0.0
 11
27.0399925995931
 21
-42.0874825390125
 31
0.0
  0
LINE
  5
95
330
1F
100
AcDbEntity
  8
1
  6
Continuous
 62
     3
100
AcDbLine
 10
26.0799925995931
 20
-42.9874825390125
 30
0.0
 11
26.6399925995931
 21
-42.6874825390125
 31
0.0
  0
LINE
  5
96
330
1F
100
AcDbEntity
  8
1
  6
Continuous
 62
     3
100
AcDbLine
 10
25.5199925995931
 20
-42.6874825390125
 30
0.0
 11
26.0799925995931
 21
-42.9874825390125
 31
0.0
  0
LINE
  5
97
330
1F
100
AcDbEntity
  8
1
  6
Continuous
 62
     3
100
AcDbLine
 10
25.1999925995931
 20
-42.0874825390125
 30
0.0
 11
25.5199925995931
 21
-42.6874825390125
 31
0.0
  0
LINE
  5
98
330
1F
100
AcDbEntity
  8
1
  6
Continuous
 62
     3
100
AcDbLine
 10
25.0399925995931
 20
-40.9874825390125
 30
0.0
 11
25.1999925995931
 21
-42.0874825390125
 31
0.0
  0
LINE
  5
99
330
1F
100
AcDbEntity
  8
1
  6
Continuous
 62
     3
100
AcDbLine
 10
25.1999925995931
 20
-39.8874825390126
 30
0.0
 11
25.0399925995931
 21
-40.9874825390125
 31
0.0
  0
LINE
  5
9A
330
1F
100
AcDbEntity
  8
1
  6
Continuous
 62
     3
100
AcDbLine
 10
25.5199925995931
 20
-39.2874825390125
 30
0.0
 11
25.1999925995931
 21
-39.8874825390126
 31
0.0
  0
LINE
  5
9B
330
1F
100
AcDbEntity
  8
1
  6
Continuous
 62
     3
100
AcDbLine
 10
26.0799925995931
 20
-38.9874825390125
 30
0.0
 11
25.5199925995931
 21
-39.2874825390125
 31
0.0
  0
LINE
  5
9C
330
1F
100
AcDbEntity
  8
1
  6
Continuous
 62
     3
100
AcDbLine
 10
21.4399925995931
 20
-40.9874825390125
 30
0.0
 11
23.1199925995931
 21
-40.9874825390125
 31
0.0
  0
LINE
  5
9D
330
1F
100
AcDbEntity
  8
1
  6
Continuous
 62
     3
100
AcDbLine
 10
17.9199925995931
 20
-42.5874825390125
 30
0.0
 11
17.6799925995931
 21
-42.0874825390125
 31
0.0
  0
LINE
  5
9E
330
1F
100
AcDbEntity
  8
1
  6
Continuous
 62
     3
100
AcDbLine
 10
18.1599925995931
 20
-42.8874825390126
 30
0.0
 11
17.9199925995931
 21
-42.5874825390125
 31
0.0
  0
LINE
  5
9F
330
1F
100
AcDbEntity
  8
1
  6
Continuous
 62
     3
100
AcDbLine
 10
18.5599925995931
 20
-42.9874825390125
 30
0.0
 11
18.1599925995931
 21
-42.8874825390126
 31
0.0
  0
LINE
  5
A0
330
1F
100
AcDbEntity
  8
1
  6
Continuous
 62
     3
100
AcDbLine
 10
18.9599925995931
 20
-42.9874825390125
 30
0.0
 11
18.5599925995931
 21
-42.9874825390125
 31
0.0
  0
LINE
  5
A1
330
1F
100
AcDbEntity
  8
1
  6
Continuous
 62
     3
100
AcDbLine
 10
19.1999925995931
 20
-42.8874825390126
 30
0.0
 11
18.9599925995931
 21
-42.9874825390125
 31
0.0
  0
LINE
  5
A2
330
1F
100
AcDbEntity
  8
1
  6
Continuous
 62
     3
100
AcDbLine
 10
19.5199925995931
 20
-42.5874825390125
 30
0.0
 11
19.1999925995931
 21
-42.8874825390126
 31
0.0
  0
LINE
  5
A3
330
1F
100
AcDbEntity
  8
1
  6
Continuous
 62
     3
100
AcDbLine
 10
19.5999925995931
 20
-42.0874825390125
 30
0.0
 11
19.5199925995931
 21
-42.5874825390125
 31
0.0
  0
LINE
  5
A4
330
1F
100
AcDbEntity
  8
1
  6
Continuous
 62
     3
100
AcDbLine
 10
19.5199925995931
 20
-41.4874825390125
 30
0.0
 11
19.5999925995931
 21
-42.0874825390125
 31
0.0
  0
LINE
  5
A5
330
1F
100
AcDbEntity
  8
1
  6
Continuous
 62
     3
100
AcDbLine
 10
19.1999925995931
 20
-41.0874825390125
 30
0.0
 11
19.5199925995931
 21
-41.4874825390125
 31
0.0
  0
LINE
  5
A6
330
1F
100
AcDbEntity
  8
1
  6
Continuous
 62
     3
100
AcDbLine
 10
18.9599925995931
 20
-40.9874825390125
 30
0.0
 11
19.1999925995931
 21
-41.0874825390125
 31
0.0
  0
LINE
  5
A7
330
1F
100
AcDbEntity
  8
1
  6
Continuous
 62
     3
100
AcDbLine
 10
18.5599925995931
 20
-40.9874825390125
 30
0.0
 11
18.9599925995931
 21
-40.9874825390125
 31
0.0
  0
LINE
  5
A8
330
1F
100
AcDbEntity
  8
1
  6
Continuous
 62
     3
100
AcDbLine
 10
18.1599925995931
 20
-40.8874825390126
 30
0.0
 11
18.5599925995931
 21
-40.9874825390125
 31
0.0
  0
LINE
  5
A9
330
1F
100
AcDbEntity
  8
1
  6
Continuous
 62
     3
100
AcDbLine
 10
17.9999925995931
 20
-40.6874825390125
 30
0.0
 11
18.1599925995931
 21
-40.8874825390126
 31
0.0
  0
LINE
  5
AA
330
1F
100
AcDbEntity
  8
1
  6
Continuous
 62
     3
100
AcDbLine
 10
17.7599925995931
 20
-40.4874825390125
 30
0.0
 11
17.9999925995931
 21
-40.6874825390125
 31
0.0
  0
LINE
  5
AB
330
1F
100
AcDbEntity
  8
1
  6
Continuous
 62
     3
100
AcDbLine
 10
17.6799925995931
 20
-39.8874825390126
 30
0.0
 11
17.7599925995931
 21
-40.4874825390125
 31
0.0
  0
LINE
  5
AC
330
1F
100
AcDbEntity
  8
1
  6
Continuous
 62
     3
100
AcDbLine
 10
17.7599925995931
 20
-39.4874825390125
 30
0.0
 11
17.6799925995931
 21
-39.8874825390126
 31
0.0
  0
LINE
  5
AD
330
1F
100
AcDbEntity
  8
1
  6
Continuous
 62
     3
100
AcDbLine
 10
18.0799925995931
 20
-39.2874825390125
 30
0.0
 11
17.7599925995931
 21
-39.4874825390125
 31
0.0
  0
LINE
  5
AE
330
1F
100
AcDbEntity
  8
1
  6
Continuous
 62
     3
100
AcDbLine
 10
18.2399925995931
 20
-39.0874825390125
 30
0.0
 11
18.0799925995931
 21
-39.2874825390125
 31
0.0
  0
LINE
  5
AF
330
1F
100
AcDbEntity
  8
1
  6
Continuous
 62
     3
100
AcDbLine
 10
18.5599925995931
 20
-39.0874825390125
 30
0.0
 11
18.2399925995931
 21
-39.0874825390125
 31
0.0
  0
LINE
  5
B0
330
1F
100
AcDbEntity
  8
1
  6
Continuous
 62
     3
100
AcDbLine
 10
18.9599925995931
 20
-39.0874825390125
 30
0.0
 11
18.5599925995931
 21
-39.0874825390125
 31
0.0
  0
LINE
  5
B1
330
1F
100
AcDbEntity
  8
1
  6
Continuous
 62
     3
100
AcDbLine
 10
19.2799925995931
 20
-39.3874825390126
 30
0.0
 11
18.9599925995931
 21
-39.0874825390125
 31
0.0
  0
LINE
  5
B2
330
1F
100
AcDbEntity
  8
1
  6
Continuous
 62
     3
100
AcDbLine
 10
19.5199925995931
 20
-39.7874825390125
 30
0.0
 11
19.2799925995931
 21
-39.3874825390126
 31
0.0
  0
LINE
  5
B3
330
1F
100
AcDbEntity
  8
1
  6
Continuous
 62
     3
100
AcDbLine
 10
14.1599925995931
 20
-42.5874825390125
 30
0.0
 11
13.9199925995931
 21
-42.0874825390125
 31
0.0
  0
LINE
  5
B4
330
1F
100
AcDbEntity
  8
1
  6
Continuous
 62
     3
100
AcDbLine
 10
14.3999925995931
 20
-42.8874825390126
 30
0.0
 11
14.1599925995931
 21
-42.5874825390125
 31
0.0
  0
LINE
  5
B5
330
1F
100
AcDbEntity
  8
1
  6
Continuous
 62
     3
100
AcDbLine
 10
14.7999925995931
 20
-42.9874825390125
 30
0.0
 11
14.3999925995931
 21
-42.8874825390126
 31
0.0
  0
LINE
  5
B6
330
1F
100
AcDbEntity
  8
1
  6
Continuous
 62
     3
100
AcDbLine
 10
15.1999925995931
 20
-42.9874825390125
 30
0.0
 11
14.7999925995931
 21
-42.9874825390125
 31
0.0
  0
LINE
  5
B7
330
1F
100
AcDbEntity
  8
1
  6
Continuous
 62
     3
100
AcDbLine
 10
15.4399925995931
 20
-42.8874825390126
 30
0.0
 11
15.1999925995931
 21
-42.9874825390125
 31
0.0
  0
LINE
  5
B8
330
1F
100
AcDbEntity
  8
1
  6
Continuous
 62
     3
100
AcDbLine
 10
15.7599925995931
 20
-42.5874825390125
 30
0.0
 11
15.4399925995931
 21
-42.8874825390126
 31
0.0
  0
LINE
  5
B9
330
1F
100
AcDbEntity
  8
1
  6
Continuous
 62
     3
100
AcDbLine
 10
15.8399925995931
 20
-42.0874825390125
 30
0.0
 11
15.7599925995931
 21
-42.5874825390125
 31
0.0
  0
LINE
  5
BA
330
1F
100
AcDbEntity
  8
1
  6
Continuous
 62
     3
100
AcDbLine
 10
15.7599925995931
 20
-41.4874825390125
 30
0.0
 11
15.8399925995931
 21
-42.0874825390125
 31
0.0
  0
LINE
  5
BB
330
1F
100
AcDbEntity
  8
1
  6
Continuous
 62
     3
100
AcDbLine
 10
15.4399925995931
 20
-41.0874825390125
 30
0.0
 11
15.7599925995931
 21
-41.4874825390125
 31
0.0
  0
LINE
  5
BC
330
1F
100
AcDbEntity
  8
1
  6
Continuous
 62
     3
100
AcDbLine
 10
15.1999925995931
 20
-40.9874825390125
 30
0.0
 11
15.4399925995931
 21
-41.0874825390125
 31
0.0
  0
LINE
  5
BD
330
1F
100
AcDbEntity
  8
1
  6
Continuous
 62
     3
100
AcDbLine
 10
14.7999925995931
 20
-40.9874825390125
 30
0.0
 11
15.1999925995931
 21
-40.9874825390125
 31
0.0
  0
LINE
  5
BE
330
1F
100
AcDbEntity
  8
1
  6
Continuous
 62
     3
100
AcDbLine
 10
14.3999925995931
 20
-40.8874825390126
 30
0.0
 11
14.7999925995931
 21
-40.9874825390125
 31
0.0
  0
LINE
  5
BF
330
1F
100
AcDbEntity
  8
1
  6
Continuous
 62
     3
100
AcDbLine
 10
14.2399925995931
 20
-40.6874825390125
 30
0.0
 11
14.3999925995931
 21
-40.8874825390126
 31
0.0
  0
LINE
  5
C0
330
1F
100
AcDbEntity
  8
1
  6
Continuous
 62
     3
100
AcDbLine
 10
13.9999925995931
 20
-40.4874825390125
 30
0.0
 11
14.2399925995931
 21
-40.6874825390125
 31
0.0
  0
LINE
  5
C1
330
1F
100
AcDbEntity
  8
1
  6
Continuous
 62
     3
100
AcDbLine
 10
13.9199925995931
 20
-39.8874825390126
 30
0.0
 11
13.9999925995931
 21
-40.4874825390125
 31
0.0
  0
LINE
  5
C2
330
1F
100
AcDbEntity
  8
1
  6
Continuous
 62
     3
100
AcDbLine
 10
13.9999925995931
 20
-39.4874825390125
 30
0.0
 11
13.9199925995931
 21
-39.8874825390126
 31
0.0
  0
LINE
  5
C3
330
1F
100
AcDbEntity
  8
1
  6
Continuous
 62
     3
100
AcDbLine
 10
14.3199925995931
 20
-39.2874825390125
 30
0.0
 11
13.9999925995931
 21
-39.4874825390125
 31
0.0
  0
LINE
  5
C4
330
1F
100
AcDbEntity
  8
1
  6
Continuous
 62
     3
100
AcDbLine
 10
14.4799925995931
 20
-39.0874825390125
 30
0.0
 11
14.3199925995931
 21
-39.2874825390125
 31
0.0
  0
LINE
  5
C5
330
1F
100
AcDbEntity
  8
1
  6
Continuous
 62
     3
100
AcDbLine
 10
14.7999925995931
 20
-39.0874825390125
 30
0.0
 11
14.4799925995931
 21
-39.0874825390125
 31
0.0
  0
LINE
  5
C6
330
1F
100
AcDbEntity
  8
1
  6
Continuous
 62
     3
100
AcDbLine
 10
15.1999925995931
 20
-39.0874825390125
 30
0.0
 11
14.7999925995931
 21
-39.0874825390125
 31
0.0
  0
LINE
  5
C7
330
1F
100
AcDbEntity
  8
1
  6
Continuous
 62
     3
100
AcDbLine
 10
15.5199925995931
 20
-39.3874825390126
 30
0.0
 11
15.1999925995931
 21
-39.0874825390125
 31
0.0
  0
LINE
  5
C8
330
1F
100
AcDbEntity
  8
1
  6
Continuous
 62
     3
100
AcDbLine
 10
15.7599925995931
 20
-39.7874825390125
 30
0.0
 11
15.5199925995931
 21
-39.3874825390126
 31
0.0
  0
LINE
  5
C9
330
1F
100
AcDbEntity
  8
1
  6
Continuous
 62
     3
100
AcDbLine
 10
11.0399925995931
 20
-39.0874825390125
 30
0.0
 11
12.0799925995931
 21
-39.0874825390125
 31
0.0
  0
LINE
  5
CA
330
1F
100
AcDbEntity
  8
1
  6
Continuous
 62
     3
100
AcDbLine
 10
11.0399925995931
 20
-39.0874825390125
 30
0.0
 11
11.0399925995931
 21
-42.9874825390125
 31
0.0
  0
LINE
  5
CB
330
1F
100
AcDbEntity
  8
1
  6
Continuous
 62
     3
100
AcDbLine
 10
9.99999259959306
 20
-39.0874825390125
 30
0.0
 11
11.0399925995931
 21
-39.0874825390125
 31
0.0
  0
LINE
  5
CC
330
1F
100
AcDbEntity
  8
1
  6
Continuous
 62
     3
100
AcDbLine
 10
5.02500000000003
 20
39.7487751588023
 30
0.0
 11
-5.09999999999999
 21
39.7487751588026
 31
0.0
  0
LINE
  5
CD
330
1F
100
AcDbEntity
  8
1
  6
DOT_CENTER
 62
     4
100
AcDbLine
 10
0.0
 20
130.715636021843
 30
0.0
 11
0.0
 21
70.7962299167497
 31
0.0
  0
LINE
  5
CE
330
1F
100
AcDbEntity
  8
1
  6
DOT_CENTER
 62
     4
100
AcDbLine
 10
-46.8897672295633
 20
101.000000000001
 30
0.0
 11
44.6531917351628
 21
101.000000000001
 31
0.0
  0
LINE
  5
CF
330
1F
100
AcDbEntity
  8
1
  6
DOT_CENTER
 62
     4
100
AcDbLine
 10
107.875329423696
 20
101.000000000001
 30
0.0
 11
125.342699305996
 21
101.000000000001
 31
0.0
  0
LINE
  5
D0
330
1F
100
AcDbEntity
  8
1
  6
Continuous
 62
     3
100
AcDbLine
 10
24.1999999999977
 20
71.9999999999998
 30
0.0
 11
25.9999999999976
 21
71.9999999999998
 31
0.0
  0
LINE
  5
D1
330
1F
100
AcDbEntity
  8
1
  6
Continuous
 62
     3
100
AcDbLine
 10
27.9999999999982
 20
78.4999999999996
 30
0.0
 11
27.9999999999978
 21
73.9999999999995
 31
0.0
  0
LINE
  5
D2
330
1F
100
AcDbEntity
  8
1
  6
Continuous
 62
     3
100
AcDbLine
 10
27.9999999999992
 20
91.2782240783015
 30
0.0
 11
27.9999999999982
 21
78.4999999999996
 31
0.0
  0
LINE
  5
D3
330
1F
100
AcDbEntity
  8
1
  6
Continuous
 62
     3
100
AcDbLine
 10
36.7999999999994
 20
92.4999999999988
 30
0.0
 11
25.2456042355832
 21
90.8958088028717
 31
0.0
  0
LINE
  5
D4
330
1F
100
AcDbEntity
  8
1
  6
Continuous
 62
     3
100
AcDbLine
 10
43.7113248654035
 20
80.4999999999987
 30
0.0
 11
27.9999999999984
 21
80.4999999999999
 31
0.0
  0
LINE
  5
D5
330
1F
100
AcDbEntity
  8
1
  6
Continuous
 62
     3
100
AcDbLine
 10
43.7113248654035
 20
79.9999999999987
 30
0.0
 11
29.4999999999983
 21
79.9999999999995
 31
0.0
  0
LINE
  5
D6
330
1F
100
AcDbEntity
  8
1
  6
Continuous
 62
     3
100
AcDbLine
 10
43.7113248654044
 20
91.3499161808526
 30
0.0
 11
43.7113248654044
 21
92.1102636354078
 31
0.0
  0
LINE
  5
D7
330
1F
100
AcDbEntity
  8
1
  6
Continuous
 62
     3
100
AcDbLine
 10
43.9999999999984
 20
80.4999999999987
 30
0.0
 11
43.9999999999992
 21
92.0939849624042
 31
0.0
  0
LINE
  5
D8
330
1F
100
AcDbEntity
  8
1
  6
Continuous
 62
     3
100
AcDbLine
 10
28.5163716940683
 20
91.3499161808537
 30
0.0
 11
43.7113248654044
 21
91.3499161808526
 31
0.0
  0
LINE
  5
D9
330
1F
100
AcDbEntity
  8
1
  6
Continuous
 62
     3
100
AcDbLine
 10
43.7113248654035
 20
79.9999999999987
 30
0.0
 11
43.7113248654035
 21
80.4999999999987
 31
0.0
  0
LINE
  5
DA
330
1F
100
AcDbEntity
  8
1
  6
Continuous
 62
     3
100
AcDbLine
 10
43.9999999999984
 20
80.4999999999987
 30
0.0
 11
43.7113248654035
 21
79.9999999999987
 31
0.0
  0
LINE
  5
DB
330
1F
100
AcDbEntity
  8
1
  6
Continuous
 62
     3
100
AcDbLine
 10
28.0
 20
110.721775921699
 30
0.0
 11
25.2456042355832
 21
111.10419119713
 31
0.0
  0
LINE
  5
DC
330
1F
100
AcDbEntity
  8
1
  6
Continuous
 62
     3
100
AcDbLine
 10
28.0
 20
123.500000000001
 30
0.0
 11
28.0
 21
110.721775921699
 31
0.0
  0
LINE
  5
DD
330
1F
100
AcDbEntity
  8
1
  6
Continuous
 62
     3
100
AcDbLine
 10
28.0
 20
128.000000000001
 30
0.0
 11
28.0
 21
123.500000000001
 31
0.0
  0
LINE
  5
DE
330
1F
100
AcDbEntity
  8
1
  6
Continuous
 62
     3
100
AcDbLine
 10
24.0
 20
129.800000000001
 30
0.0
 11
24.0
 21
129.700000000001
 31
0.0
  0
LINE
  5
DF
330
1F
100
AcDbEntity
  8
1
  6
Continuous
 62
     3
100
AcDbLine
 10
36.8000000000001
 20
109.500000000001
 30
0.0
 11
28.0
 21
110.721775921699
 31
0.0
  0
LINE
  5
E0
330
1F
100
AcDbEntity
  8
1
  6
Continuous
 62
     3
100
AcDbLine
 10
28.0
 20
121.5
 30
0.0
 11
43.7113248654052
 21
121.5
 31
0.0
  0
LINE
  5
E1
330
1F
100
AcDbEntity
  8
1
  6
Continuous
 62
     3
100
AcDbLine
 10
29.5
 20
122.000000000001
 30
0.0
 11
43.7113248654052
 21
122.0
 31
0.0
  0
LINE
  5
E2
330
1F
100
AcDbEntity
  8
1
  6
Continuous
 62
     3
100
AcDbLine
 10
26.0
 20
130.000000000001
 30
0.0
 11
24.2000000000001
 21
130.000000000001
 31
0.0
  0
LINE
  5
E3
330
1F
100
AcDbEntity
  8
1
  6
Continuous
 62
     3
100
AcDbLine
 10
43.7113248654051
 20
109.889736364591
 30
0.0
 11
43.7113248654052
 21
110.650083819146
 31
0.0
  0
LINE
  5
E4
330
1F
100
AcDbEntity
  8
1
  6
Continuous
 62
     3
100
AcDbLine
 10
44.0
 20
109.906015037595
 30
0.0
 11
44.0
 21
121.5
 31
0.0
  0
LINE
  5
E5
330
1F
100
AcDbEntity
  8
1
  6
Continuous
 62
     3
100
AcDbLine
 10
24.0
 20
72.1999999999999
 30
0.0
 11
23.9999999999999
 21
91.049916180854
 31
0.0
  0
LINE
  5
E6
330
1F
100
AcDbEntity
  8
1
  6
Continuous
 62
     3
100
AcDbLine
 10
23.9999999999999
 20
101.0
 30
0.0
 11
24.0
 21
108.052720584927
 31
0.0
  0
LINE
  5
E7
330
1F
100
AcDbEntity
  8
1
  6
Continuous
 62
     3
100
AcDbLine
 10
43.7113248654052
 20
110.650083819146
 30
0.0
 11
28.5163716940691
 21
110.650083819146
 31
0.0
  0
LINE
  5
E8
330
1F
100
AcDbEntity
  8
1
  6
Continuous
 62
     3
100
AcDbLine
 10
24.0
 20
110.950083819147
 30
0.0
 11
24.0
 21
129.700000000001
 31
0.0
  0
LINE
  5
E9
330
1F
100
AcDbEntity
  8
1
  6
Continuous
 62
     3
100
AcDbLine
 10
43.7113248654052
 20
121.5
 30
0.0
 11
43.7113248654052
 21
122.0
 31
0.0
  0
LINE
  5
EA
330
1F
100
AcDbEntity
  8
1
  6
Continuous
 62
     3
100
AcDbLine
 10
43.7113248654052
 20
122.0
 30
0.0
 11
44.0
 21
121.5
 31
0.0
  0
LINE
  5
EB
330
1F
100
AcDbEntity
  8
1
  6
Continuous
 62
     3
100
AcDbLine
 10
7.0
 20
73.2361242018757
 30
0.0
 11
7.0
 21
91.0000000000006
 31
0.0
  0
LINE
  5
EC
330
1F
100
AcDbEntity
  8
1
  6
Continuous
 62
     3
100
AcDbLine
 10
7.0
 20
128.717343201425
 30
0.0
 11
7.0
 21
115.500000000001
 31
0.0
  0
LINE
  5
ED
330
1F
100
AcDbEntity
  8
1
  6
Continuous
 62
     3
100
AcDbLine
 10
-3.50000000000001
 20
116.000000000001
 30
0.0
 11
-3.50000000000001
 21
111.037429949943
 31
0.0
  0
LINE
  5
EE
330
1F
100
AcDbEntity
  8
1
  6
Continuous
 62
     3
100
AcDbLine
 10
3.5
 20
116.000000000001
 30
0.0
 11
3.5
 21
111.037429949943
 31
0.0
  0
LINE
  5
EF
330
1F
100
AcDbEntity
  8
1
  6
Continuous
 62
     3
100
AcDbLine
 10
-3.50000000000001
 20
86.0000000000006
 30
0.0
 11
-3.50000000000001
 21
90.9625700500583
 31
0.0
  0
LINE
  5
F0
330
1F
100
AcDbEntity
  8
1
  6
Continuous
 62
     3
100
AcDbLine
 10
3.5
 20
86.0000000000006
 30
0.0
 11
3.5
 21
90.9625700500583
 31
0.0
  0
LINE
  5
F1
330
1F
100
AcDbEntity
  8
1
  6
Continuous
 62
     3
100
AcDbLine
 10
-2.50000000000001
 20
85.0000000000006
 30
0.0
 11
2.5
 21
85.0000000000006
 31
0.0
  0
LINE
  5
F2
330
1F
100
AcDbEntity
  8
1
  6
Continuous
 62
     3
100
AcDbLine
 10
-2.49999999999997
 20
117.000000000001
 30
0.0
 11
2.50000000000003
 21
117.000000000001
 31
0.0
  0
LINE
  5
F3
330
1F
100
AcDbEntity
  8
1
  6
Continuous
 62
     3
100
AcDbLine
 10
-43.7113248654052
 20
93.6472794150742
 30
0.0
 11
-43.7113248654052
 21
91.3499161808544
 31
0.0
  0
LINE
  5
F4
330
1F
100
AcDbEntity
  8
1
  6
Continuous
 62
     3
100
AcDbLine
 10
-24.0
 20
101.000000000001
 30
0.0
 11
-24.0
 21
93.9472794150742
 31
0.0
  0
LINE
  5
F5
330
1F
100
AcDbEntity
  8
1
  6
Continuous
 62
     3
100
AcDbLine
 10
-24.3
 20
93.6472794150742
 30
0.0
 11
-43.7113248654052
 21
93.6472794150742
 31
0.0
  0
LINE
  5
F6
330
1F
100
AcDbEntity
  8
1
  6
Continuous
 62
     3
100
AcDbLine
 10
-43.7113248654052
 20
91.3499161808544
 30
0.0
 11
-24.3
 21
91.3499161808544
 31
0.0
  0
LINE
  5
F7
330
1F
100
AcDbEntity
  8
1
  6
Continuous
 62
     3
100
AcDbLine
 10
-24.0
 20
91.0499161808544
 30
0.0
 11
-24.0
 21
80.8000000000006
 31
0.0
  0
LINE
  5
F8
330
1F
100
AcDbEntity
  8
1
  6
Continuous
 62
     3
100
AcDbLine
 10
-24.3
 20
80.5000000000006
 30
0.0
 11
-43.7113248654052
 21
80.5000000000006
 31
0.0
  0
LINE
  5
F9
330
1F
100
AcDbEntity
  8
1
  6
Continuous
 62
     3
100
AcDbLine
 10
-43.7113248654052
 20
80.5000000000006
 30
0.0
 11
-43.7113248654052
 21
80.0000000000006
 31
0.0
  0
LINE
  5
FA
330
1F
100
AcDbEntity
  8
1
  6
Continuous
 62
     3
100
AcDbLine
 10
-25.0
 20
80.0000000000006
 30
0.0
 11
-43.7113248654052
 21
80.0000000000006
 31
0.0
  0
LINE
  5
FB
330
1F
100
AcDbEntity
  8
1
  6
Continuous
 62
     3
100
AcDbLine
 10
-44.0
 20
101.000000000001
 30
0.0
 11
-44.0
 21
80.5000000000006
 31
0.0
  0
LINE
  5
FC
330
1F
100
AcDbEntity
  8
1
  6
Continuous
 62
     3
100
AcDbLine
 10
-43.7113248654052
 20
80.0000000000006
 30
0.0
 11
-44.0
 21
80.5000000000006
 31
0.0
  0
LINE
  5
FD
330
1F
100
AcDbEntity
  8
1
  6
Continuous
 62
     3
100
AcDbLine
 10
-2.54070785647892
 20
73.0000000000006
 30
0.0
 11
-23.3322612870703
 21
78.5710799511161
 31
0.0
  0
LINE
  5
FE
330
1F
100
AcDbEntity
  8
1
  6
Continuous
 62
     3
100
AcDbLine
 10
24.1999999999977
 20
71.9999999999998
 30
0.0
 11
7.7320508075689
 21
72.0000000000006
 31
0.0
  0
LINE
  5
FF
330
1F
100
AcDbEntity
  8
1
  6
Continuous
 62
     3
100
AcDbLine
 10
6.0
 20
73.0000000000006
 30
0.0
 11
-2.54070785647892
 21
73.0000000000006
 31
0.0
  0
LINE
  5
100
330
1F
100
AcDbEntity
  8
1
  6
Continuous
 62
     3
100
AcDbLine
 10
-24.0
 20
108.052720584927
 30
0.0
 11
-24.0
 21
101.000000000001
 31
0.0
  0
LINE
  5
101
330
1F
100
AcDbEntity
  8
1
  6
Continuous
 62
     3
100
AcDbLine
 10
-43.7113248654052
 20
108.352720584927
 30
0.0
 11
-24.3
 21
108.352720584927
 31
0.0
  0
LINE
  5
102
330
1F
100
AcDbEntity
  8
1
  6
Continuous
 62
     3
100
AcDbLine
 10
-24.3
 20
110.650083819147
 30
0.0
 11
-43.7113248654052
 21
110.650083819147
 31
0.0
  0
LINE
  5
103
330
1F
100
AcDbEntity
  8
1
  6
Continuous
 62
     3
100
AcDbLine
 10
-24.0
 20
121.200000000001
 30
0.0
 11
-24.0
 21
110.950083819147
 31
0.0
  0
LINE
  5
104
330
1F
100
AcDbEntity
  8
1
  6
Continuous
 62
     3
100
AcDbLine
 10
-43.7113248654052
 20
121.500000000001
 30
0.0
 11
-24.3
 21
121.500000000001
 31
0.0
  0
LINE
  5
105
330
1F
100
AcDbEntity
  8
1
  6
Continuous
 62
     3
100
AcDbLine
 10
-43.7113248654052
 20
122.000000000001
 30
0.0
 11
-25.0
 21
122.000000000001
 31
0.0
  0
LINE
  5
106
330
1F
100
AcDbEntity
  8
1
  6
Continuous
 62
     3
100
AcDbLine
 10
-23.3322612870703
 20
123.428920048885
 30
0.0
 11
-2.54070785647892
 21
129.000000000001
 31
0.0
  0
LINE
  5
107
330
1F
100
AcDbEntity
  8
1
  6
Continuous
 62
     3
100
AcDbLine
 10
7.7320508075689
 20
130.000000000001
 30
0.0
 11
24.2000000000001
 21
130.000000000001
 31
0.0
  0
LINE
  5
108
330
1F
100
AcDbEntity
  8
1
  6
Continuous
 62
     3
100
AcDbLine
 10
-2.54070785647892
 20
129.000000000001
 30
0.0
 11
6.0
 21
129.000000000001
 31
0.0
  0
LINE
  5
109
102
{ACAD_REACTORS
330
47A
102
}
330
1F
100
AcDbEntity
  8
1
  6
Continuous
 62
     3
100
AcDbLine
 10
84.6332992923414
 20
100.494882608315
 30
0.0
 11
84.6332992923414
 21
98.6000000000003
 31
0.0
  0
LINE
  5
10A
102
{ACAD_REACTORS
330
47A
102
}
330
1F
100
AcDbEntity
  8
1
  6
Continuous
 62
     3
100
AcDbLine
 10
83.7374692403324
 20
100.494882608315
 30
0.0
 11
83.7374692403324
 21
98.6000000000003
 31
0.0
  0
LINE
  5
10B
102
{ACAD_REACTORS
330
47A
102
}
330
1F
100
AcDbEntity
  8
1
  6
Continuous
 62
     3
100
AcDbLine
 10
83.7374692403324
 20
100.494882608315
 30
0.0
 11
84.6332992923414
 21
100.494882608315
 31
0.0
  0
LINE
  5
10C
102
{ACAD_REACTORS
330
47B
102
}
330
1F
100
AcDbEntity
  8
1
  6
Continuous
 62
     3
100
AcDbLine
 10
83.1621444775123
 20
98.6000000000003
 30
0.0
 11
81.7007929951017
 21
101.035585804018
 31
0.0
  0
LINE
  5
10D
102
{ACAD_REACTORS
330
47B
102
}
330
1F
100
AcDbEntity
  8
1
  6
Continuous
 62
     3
100
AcDbLine
 10
81.8275999775149
 20
99.0871171608036
 30
0.0
 11
79.7390185860649
 21
99.0871171608036
 31
0.0
  0
LINE
  5
10E
102
{ACAD_REACTORS
330
47B
102
}
330
1F
100
AcDbEntity
  8
1
  6
Continuous
 62
     3
100
AcDbLine
 10
81.5715040399948
 20
99.5133446765065
 30
0.0
 11
80.84443527243
 21
100.723425232822
 31
0.0
  0
LINE
  5
10F
102
{ACAD_REACTORS
330
47B
102
}
330
1F
100
AcDbEntity
  8
1
  6
Continuous
 62
     3
100
AcDbLine
 10
80.0269588682789
 20
99.5133446765065
 30
0.0
 11
81.5715040399948
 21
99.5133446765065
 31
0.0
  0
LINE
  5
110
102
{ACAD_REACTORS
330
47B
102
}
330
1F
100
AcDbEntity
  8
1
  6
Continuous
 62
     3
100
AcDbLine
 10
82.1202810489663
 20
98.6000000000003
 30
0.0
 11
81.8275999775149
 21
99.0871171608036
 31
0.0
  0
LINE
  5
111
102
{ACAD_REACTORS
330
47B
102
}
330
1F
100
AcDbEntity
  8
1
  6
Continuous
 62
     3
100
AcDbLine
 10
82.1202810489663
 20
98.6000000000003
 30
0.0
 11
83.1621444775123
 21
98.6000000000003
 31
0.0
  0
LINE
  5
112
102
{ACAD_REACTORS
330
47B
102
}
330
1F
100
AcDbEntity
  8
1
  6
Continuous
 62
     3
100
AcDbLine
 10
78.7230609584011
 20
98.6000000000003
 30
0.0
 11
80.3061917310122
 21
101.035585804018
 31
0.0
  0
LINE
  5
113
102
{ACAD_REACTORS
330
47B
102
}
330
1F
100
AcDbEntity
  8
1
  6
Continuous
 62
     3
100
AcDbLine
 10
80.3061917310122
 20
101.035585804018
 30
0.0
 11
81.7007929951017
 21
101.035585804018
 31
0.0
  0
LINE
  5
114
102
{ACAD_REACTORS
330
47B
102
}
330
1F
100
AcDbEntity
  8
1
  6
Continuous
 62
     3
100
AcDbLine
 10
78.7230609584011
 20
98.6000000000003
 30
0.0
 11
79.4099439778205
 21
98.6000000000003
 31
0.0
  0
LINE
  5
115
102
{ACAD_REACTORS
330
47B
102
}
330
1F
100
AcDbEntity
  8
1
  6
Continuous
 62
     3
100
AcDbLine
 10
80.0269588682789
 20
99.5133446765065
 30
0.0
 11
80.84443527243
 21
100.723425232822
 31
0.0
  0
LINE
  5
116
102
{ACAD_REACTORS
330
47B
102
}
330
1F
100
AcDbEntity
  8
1
  6
Continuous
 62
     3
100
AcDbLine
 10
79.7390185860649
 20
99.0871171608036
 30
0.0
 11
79.4099439778205
 21
98.6000000000003
 31
0.0
  0
LINE
  5
117
102
{ACAD_REACTORS
330
47D
102
}
330
1F
100
AcDbEntity
  8
1
  6
Continuous
 62
     3
100
AcDbLine
 10
73.176242681041
 20
98.6000000000003
 30
0.0
 11
71.7148911986305
 21
101.035585804018
 31
0.0
  0
LINE
  5
118
102
{ACAD_REACTORS
330
47C
102
}
330
1F
100
AcDbEntity
  8
1
  6
Continuous
 62
     3
100
AcDbLine
 10
78.182357762698
 20
98.6000000000003
 30
0.0
 11
78.182357762698
 21
101.035585804018
 31
0.0
  0
LINE
  5
119
102
{ACAD_REACTORS
330
47D
102
}
330
1F
100
AcDbEntity
  8
1
  6
Continuous
 62
     3
100
AcDbLine
 10
71.8416981810437
 20
99.0871171608036
 30
0.0
 11
69.7531167895938
 21
99.0871171608036
 31
0.0
  0
LINE
  5
11A
102
{ACAD_REACTORS
330
47D
102
}
330
1F
100
AcDbEntity
  8
1
  6
Continuous
 62
     3
100
AcDbLine
 10
71.5856022435237
 20
99.5133446765065
 30
0.0
 11
70.8585334759589
 21
100.723425232822
 31
0.0
  0
LINE
  5
11B
102
{ACAD_REACTORS
330
47D
102
}
330
1F
100
AcDbEntity
  8
1
  6
Continuous
 62
     3
100
AcDbLine
 10
70.0410570718078
 20
99.5133446765065
 30
0.0
 11
71.5856022435237
 21
99.5133446765065
 31
0.0
  0
LINE
  5
11C
102
{ACAD_REACTORS
330
47D
102
}
330
1F
100
AcDbEntity
  8
1
  6
Continuous
 62
     3
100
AcDbLine
 10
72.1343792524951
 20
98.6000000000003
 30
0.0
 11
71.8416981810437
 21
99.0871171608036
 31
0.0
  0
LINE
  5
11D
102
{ACAD_REACTORS
330
47D
102
}
330
1F
100
AcDbEntity
  8
1
  6
Continuous
 62
     3
100
AcDbLine
 10
72.1343792524951
 20
98.6000000000003
 30
0.0
 11
73.176242681041
 21
98.6000000000003
 31
0.0
  0
LINE
  5
11E
102
{ACAD_REACTORS
330
47C
102
}
330
1F
100
AcDbEntity
  8
1
  6
Continuous
 62
     3
100
AcDbLine
 10
73.7228064499646
 20
98.6000000000003
 30
0.0
 11
74.3892385013706
 21
98.6000000000003
 31
0.0
  0
LINE
  5
11F
102
{ACAD_REACTORS
330
47C
102
}
330
1F
100
AcDbEntity
  8
1
  6
Continuous
 62
     3
100
AcDbLine
 10
73.7228064499646
 20
101.035585804018
 30
0.0
 11
75.2205128126919
 21
101.035585804018
 31
0.0
  0
LINE
  5
120
102
{ACAD_REACTORS
330
47C
102
}
330
1F
100
AcDbEntity
  8
1
  6
Continuous
 62
     3
100
AcDbLine
 10
73.7228064499646
 20
101.035585804018
 30
0.0
 11
73.7228064499646
 21
98.6000000000003
 31
0.0
  0
LINE
  5
121
102
{ACAD_REACTORS
330
47E
102
}
330
1F
100
AcDbEntity
  8
1
  6
Continuous
 62
     3
100
AcDbLine
 10
62.4573352000001
 20
103.926668000001
 30
0.0
 11
62.4573352000001
 21
98.6000000000005
 31
0.0
  0
LINE
  5
122
102
{ACAD_REACTORS
330
47F
102
}
330
1F
100
AcDbEntity
  8
1
  6
Continuous
 62
     3
100
AcDbLine
 10
55.0000000000001
 20
103.926668000001
 30
0.0
 11
55.0000000000001
 21
98.6000000000007
 31
0.0
  0
LINE
  5
123
102
{ACAD_REACTORS
330
47F
102
}
330
1F
100
AcDbEntity
  8
1
  6
Continuous
 62
     3
100
AcDbLine
 10
55.0000000000001
 20
103.926668000001
 30
0.0
 11
56.7015745000001
 21
103.926668000001
 31
0.0
  0
LINE
  5
124
102
{ACAD_REACTORS
330
47F
102
}
330
1F
100
AcDbEntity
  8
1
  6
Continuous
 62
     3
100
AcDbLine
 10
55.0000000000001
 20
98.6000000000007
 30
0.0
 11
56.7015745000001
 21
98.6000000000005
 31
0.0
  0
LINE
  5
125
102
{ACAD_REACTORS
330
480
102
}
330
1F
100
AcDbEntity
  8
1
  6
Continuous
 62
     3
100
AcDbLine
 10
64.5000000000001
 20
101.035585804018
 30
0.0
 11
64.5000000000001
 21
98.6000000000006
 31
0.0
  0
LINE
  5
126
102
{ACAD_REACTORS
330
480
102
}
330
1F
100
AcDbEntity
  8
1
  6
Continuous
 62
     3
100
AcDbLine
 10
68.2751579962268
 20
101.035585804018
 30
0.0
 11
68.2751579962268
 21
98.6000000000003
 31
0.0
  0
LINE
  5
127
102
{ACAD_REACTORS
330
47D
102
}
330
1F
100
AcDbEntity
  8
1
  6
Continuous
 62
     3
100
AcDbLine
 10
68.73715916193
 20
98.6000000000003
 30
0.0
 11
70.3202899345411
 21
101.035585804018
 31
0.0
  0
LINE
  5
128
102
{ACAD_REACTORS
330
47D
102
}
330
1F
100
AcDbEntity
  8
1
  6
Continuous
 62
     3
100
AcDbLine
 10
70.3202899345411
 20
101.035585804018
 30
0.0
 11
71.7148911986305
 21
101.035585804018
 31
0.0
  0
LINE
  5
129
102
{ACAD_REACTORS
330
47D
102
}
330
1F
100
AcDbEntity
  8
1
  6
Continuous
 62
     3
100
AcDbLine
 10
68.73715916193
 20
98.6000000000003
 30
0.0
 11
69.4240421813494
 21
98.6000000000003
 31
0.0
  0
LINE
  5
12A
102
{ACAD_REACTORS
330
47E
102
}
330
1F
100
AcDbEntity
  8
1
  6
Continuous
 62
     3
100
AcDbLine
 10
62.4573352000001
 20
103.926668000001
 30
0.0
 11
60.7557607
 21
103.926668000001
 31
0.0
  0
LINE
  5
12B
102
{ACAD_REACTORS
330
47E
102
}
330
1F
100
AcDbEntity
  8
1
  6
Continuous
 62
     3
100
AcDbLine
 10
62.4573352000001
 20
98.6000000000005
 30
0.0
 11
60.7557607
 21
98.6000000000005
 31
0.0
  0
LINE
  5
12C
102
{ACAD_REACTORS
330
47C
102
}
330
1F
100
AcDbEntity
  8
1
  6
Continuous
 62
     3
100
AcDbLine
 10
77.1505878406894
 20
100.365799707913
 30
0.0
 11
77.1505878406894
 21
98.6000000000003
 31
0.0
  0
LINE
  5
12D
102
{ACAD_REACTORS
330
47C
102
}
330
1F
100
AcDbEntity
  8
1
  6
Continuous
 62
     3
100
AcDbLine
 10
77.1505878406894
 20
98.6000000000003
 30
0.0
 11
78.182357762698
 21
98.6000000000003
 31
0.0
  0
LINE
  5
12E
102
{ACAD_REACTORS
330
47C
102
}
330
1F
100
AcDbEntity
  8
1
  6
Continuous
 62
     3
100
AcDbLine
 10
74.3892385013706
 20
100.365799707913
 30
0.0
 11
74.3892385013706
 21
98.6000000000003
 31
0.0
  0
LINE
  5
12F
102
{ACAD_REACTORS
330
47E
102
}
330
1F
100
AcDbEntity
  8
1
  6
Continuous
 62
     3
100
AcDbLine
 10
60.7557607
 20
103.926668000001
 30
0.0
 11
60.7557607
 21
98.6000000000005
 31
0.0
  0
LINE
  5
130
102
{ACAD_REACTORS
330
47F
102
}
330
1F
100
AcDbEntity
  8
1
  6
Continuous
 62
     3
100
AcDbLine
 10
56.7015745000001
 20
103.926668000001
 30
0.0
 11
56.7015745000001
 21
98.6000000000005
 31
0.0
  0
LINE
  5
131
102
{ACAD_REACTORS
330
481
102
}
330
1F
100
AcDbEntity
  8
1
  6
Continuous
 62
     3
100
AcDbLine
 10
59.5794548499999
 20
98.6000000000005
 30
0.0
 11
59.5794548499999
 21
103.926668000001
 31
0.0
  0
LINE
  5
132
102
{ACAD_REACTORS
330
481
102
}
330
1F
100
AcDbEntity
  8
1
  6
Continuous
 62
     3
100
AcDbLine
 10
57.8778803500001
 20
98.6000000000005
 30
0.0
 11
57.8778803500001
 21
103.926668000001
 31
0.0
  0
LINE
  5
133
102
{ACAD_REACTORS
330
481
102
}
330
1F
100
AcDbEntity
  8
1
  6
Continuous
 62
     3
100
AcDbLine
 10
57.8778803500001
 20
98.6000000000005
 30
0.0
 11
59.5794548499999
 21
98.6000000000005
 31
0.0
  0
LINE
  5
134
102
{ACAD_REACTORS
330
481
102
}
330
1F
100
AcDbEntity
  8
1
  6
Continuous
 62
     3
100
AcDbLine
 10
57.8778803500001
 20
103.926668000001
 30
0.0
 11
59.5794548499999
 21
103.926668000001
 31
0.0
  0
LINE
  5
135
102
{ACAD_REACTORS
330
480
102
}
330
1F
100
AcDbEntity
  8
1
  6
Continuous
 62
     3
100
AcDbLine
 10
67.2183465192183
 20
101.035585804018
 30
0.0
 11
68.2751579962268
 21
101.035585804018
 31
0.0
  0
LINE
  5
136
102
{ACAD_REACTORS
330
480
102
}
330
1F
100
AcDbEntity
  8
1
  6
Continuous
 62
     3
100
AcDbLine
 10
65.5568114770089
 20
101.035585804018
 30
0.0
 11
64.5000000000001
 21
101.035585804018
 31
0.0
  0
LINE
  5
137
102
{ACAD_REACTORS
330
480
102
}
330
1F
100
AcDbEntity
  8
1
  6
Continuous
 62
     3
100
AcDbLine
 10
65.5568114770089
 20
98.6000000000003
 30
0.0
 11
64.5000000000001
 21
98.6000000000006
 31
0.0
  0
LINE
  5
138
102
{ACAD_REACTORS
330
480
102
}
330
1F
100
AcDbEntity
  8
1
  6
Continuous
 62
     3
100
AcDbLine
 10
67.2183465192183
 20
98.6000000000003
 30
0.0
 11
68.2751579962268
 21
98.6000000000003
 31
0.0
  0
LINE
  5
139
102
{ACAD_REACTORS
330
480
102
}
330
1F
100
AcDbEntity
  8
1
  6
Continuous
 62
     3
100
AcDbLine
 10
67.2183465192183
 20
98.6000000000003
 30
0.0
 11
67.2183465192183
 21
99.5992014365065
 31
0.0
  0
LINE
  5
13A
102
{ACAD_REACTORS
330
480
102
}
330
1F
100
AcDbEntity
  8
1
  6
Continuous
 62
     3
100
AcDbLine
 10
67.2183465192183
 20
99.5992014365065
 30
0.0
 11
65.5568114770089
 21
99.5992014365065
 31
0.0
  0
LINE
  5
13B
102
{ACAD_REACTORS
330
480
102
}
330
1F
100
AcDbEntity
  8
1
  6
Continuous
 62
     3
100
AcDbLine
 10
67.2183465192183
 20
100.036384367511
 30
0.0
 11
67.2183465192183
 21
101.035585804018
 31
0.0
  0
LINE
  5
13C
102
{ACAD_REACTORS
330
480
102
}
330
1F
100
AcDbEntity
  8
1
  6
Continuous
 62
     3
100
AcDbLine
 10
67.2183465192183
 20
100.036384367511
 30
0.0
 11
65.5568114770089
 21
100.036384367511
 31
0.0
  0
LINE
  5
13D
102
{ACAD_REACTORS
330
480
102
}
330
1F
100
AcDbEntity
  8
1
  6
Continuous
 62
     3
100
AcDbLine
 10
65.5568114770089
 20
101.035585804018
 30
0.0
 11
65.5568114770089
 21
100.036384367511
 31
0.0
  0
LINE
  5
13E
102
{ACAD_REACTORS
330
480
102
}
330
1F
100
AcDbEntity
  8
1
  6
Continuous
 62
     3
100
AcDbLine
 10
65.5568114770089
 20
99.5992014365065
 30
0.0
 11
65.5568114770089
 21
98.6000000000003
 31
0.0
  0
LINE
  5
13F
102
{ACAD_REACTORS
330
47D
102
}
330
1F
100
AcDbEntity
  8
1
  6
Continuous
 62
     3
100
AcDbLine
 10
70.0410570718078
 20
99.5133446765065
 30
0.0
 11
70.8585334759589
 21
100.723425232822
 31
0.0
  0
LINE
  5
140
102
{ACAD_REACTORS
330
47D
102
}
330
1F
100
AcDbEntity
  8
1
  6
Continuous
 62
     3
100
AcDbLine
 10
69.7531167895938
 20
99.0871171608036
 30
0.0
 11
69.4240421813494
 21
98.6000000000003
 31
0.0
  0
LINE
  5
141
102
{ACAD_REACTORS
330
47C
102
}
330
1F
100
AcDbEntity
  8
1
  6
Continuous
 62
     3
100
AcDbLine
 10
77.1505878406894
 20
100.365799707913
 30
0.0
 11
76.2534501484657
 21
98.6000000000003
 31
0.0
  0
LINE
  5
142
102
{ACAD_REACTORS
330
47C
102
}
330
1F
100
AcDbEntity
  8
1
  6
Continuous
 62
     3
100
AcDbLine
 10
76.2534501484657
 20
98.6000000000003
 30
0.0
 11
75.3500108607907
 21
98.6000000000003
 31
0.0
  0
LINE
  5
143
102
{ACAD_REACTORS
330
47C
102
}
330
1F
100
AcDbEntity
  8
1
  6
Continuous
 62
     3
100
AcDbLine
 10
75.3500108607907
 20
98.6000000000003
 30
0.0
 11
74.3892385013706
 21
100.365799707913
 31
0.0
  0
LINE
  5
144
102
{ACAD_REACTORS
330
47C
102
}
330
1F
100
AcDbEntity
  8
1
  6
Continuous
 62
     3
100
AcDbLine
 10
75.9548209777483
 20
99.5133446765065
 30
0.0
 11
75.2205128126919
 21
101.035585804018
 31
0.0
  0
LINE
  5
145
102
{ACAD_REACTORS
330
47C
102
}
330
1F
100
AcDbEntity
  8
1
  6
Continuous
 62
     3
100
AcDbLine
 10
75.9548209777483
 20
99.5133446765065
 30
0.0
 11
76.6352349655552
 21
101.035585804018
 31
0.0
  0
LINE
  5
146
102
{ACAD_REACTORS
330
47C
102
}
330
1F
100
AcDbEntity
  8
1
  6
Continuous
 62
     3
100
AcDbLine
 10
76.6352349655552
 20
101.035585804018
 30
0.0
 11
78.182357762698
 21
101.035585804018
 31
0.0
  0
LINE
  5
147
102
{ACAD_REACTORS
330
47A
102
}
330
1F
100
AcDbEntity
  8
1
  6
Continuous
 62
     3
100
AcDbLine
 10
83.7374692403324
 20
98.6000000000003
 30
0.0
 11
84.6332992923414
 21
98.6000000000003
 31
0.0
  0
LINE
  5
148
102
{ACAD_REACTORS
330
479
102
}
330
1F
100
AcDbEntity
  8
1
  6
Continuous
 62
     3
100
AcDbLine
 10
49.5000000000001
 20
103.668976325122
 30
0.0
 11
50.0411834017258
 21
102.374430771305
 31
0.0
  0
LINE
  5
149
102
{ACAD_REACTORS
330
479
102
}
330
1F
100
AcDbEntity
  8
1
  6
Continuous
 62
     3
100
AcDbLine
 10
49.5000000000001
 20
103.668976325122
 30
0.0
 11
48.9127849532708
 21
102.374430771305
 31
0.0
  0
LINE
  5
14A
102
{ACAD_REACTORS
330
479
102
}
330
1F
100
AcDbEntity
  8
1
  6
Continuous
 62
     3
100
AcDbLine
 10
48.9127849532708
 20
102.374430771305
 30
0.0
 11
49.390407344934
 21
102.374430771305
 31
0.0
  0
LINE
  5
14B
102
{ACAD_REACTORS
330
479
102
}
330
1F
100
AcDbEntity
  8
1
  6
Continuous
 62
     3
100
AcDbLine
 10
50.0411834017258
 20
99.5204200106706
 30
0.0
 11
49.5000000000001
 21
98.2258744568536
 31
0.0
  0
LINE
  5
14C
102
{ACAD_REACTORS
330
479
102
}
330
1F
100
AcDbEntity
  8
1
  6
Continuous
 62
     3
100
AcDbLine
 10
48.9127849532708
 20
99.5204200106706
 30
0.0
 11
49.5000000000001
 21
98.2258744568536
 31
0.0
  0
LINE
  5
14D
102
{ACAD_REACTORS
330
479
102
}
330
1F
100
AcDbEntity
  8
1
  6
Continuous
 62
     3
100
AcDbLine
 10
50.0411834017258
 20
99.5204200106706
 30
0.0
 11
49.5426004358603
 21
99.5204200106706
 31
0.0
  0
LINE
  5
14E
102
{ACAD_REACTORS
330
479
102
}
330
1F
100
AcDbEntity
  8
1
  6
Continuous
 62
     3
100
AcDbLine
 10
49.3538764599121
 20
99.5204200106706
 30
0.0
 11
48.9127849532708
 21
99.5204200106706
 31
0.0
  0
LINE
  5
14F
102
{ACAD_REACTORS
330
479
102
}
330
1F
100
AcDbEntity
  8
1
  6
Continuous
 62
     3
100
AcDbLine
 10
49.5791313208823
 20
102.374430771305
 30
0.0
 11
50.0411834017258
 21
102.374430771305
 31
0.0
  0
LINE
  5
150
330
1F
100
AcDbEntity
  8
1
  6
Continuous
 62
     3
100
AcDbLine
 10
49.7437814077758
 20
102.847883799446
 30
0.0
 11
49.7437814077758
 21
103.081184828763
 31
0.0
  0
LINE
  5
151
330
1F
100
AcDbEntity
  8
1
  6
Continuous
 62
     3
100
AcDbLine
 10
49.4965890857938
 20
102.84435248056
 30
0.0
 11
49.4965890857938
 21
103.668976325122
 31
0.0
  0
LINE
  5
152
330
1F
100
AcDbEntity
  8
1
  6
Continuous
 62
     3
100
AcDbLine
 10
49.2458654449268
 20
102.847883799446
 30
0.0
 11
49.2458654449268
 21
103.11177684988
 31
0.0
  0
LINE
  5
153
330
1F
100
AcDbEntity
  8
1
  6
Continuous
 62
     3
100
AcDbLine
 10
36.8000000000001
 20
109.500000000001
 30
0.0
 11
90.0000000000001
 21
112.500000000001
 31
0.0
  0
LINE
  5
154
330
1F
100
AcDbEntity
  8
1
  6
Continuous
 62
     3
100
AcDbLine
 10
90.0000000000001
 20
89.5000000000006
 30
0.0
 11
36.7999999999994
 21
92.4999999999988
 31
0.0
  0
LINE
  5
155
330
1F
100
AcDbEntity
  8
1
  6
Continuous
 62
     3
100
AcDbLine
 10
36.8000000000001
 20
108.028645936621
 30
0.0
 11
36.8000000000001
 21
93.5967555714576
 31
0.0
  0
LINE
  5
156
330
1F
100
AcDbEntity
  8
1
  6
Continuous
 62
     3
100
AcDbLine
 10
-9.99999999999997
 20
101.000000000001
 30
0.0
 11
-9.99999999999997
 21
97.5000000000006
 31
0.0
  0
LINE
  5
157
330
1F
100
AcDbEntity
  8
1
  6
Continuous
 62
     3
100
AcDbLine
 10
-14.5
 20
97.5000000000006
 30
0.0
 11
-14.5
 21
91.0000000000006
 31
0.0
  0
LINE
  5
158
330
1F
100
AcDbEntity
  8
1
  6
Continuous
 62
     3
100
AcDbLine
 10
0.0
 20
111.000000000001
 30
0.0
 11
3.5
 21
111.000000000001
 31
0.0
  0
LINE
  5
159
330
1F
100
AcDbEntity
  8
1
  6
DASHED
 62
     3
100
AcDbLine
 10
3.5
 20
111.000000000001
 30
0.0
 11
3.5
 21
113.000000000001
 31
0.0
  0
LINE
  5
15A
330
1F
100
AcDbEntity
  8
1
  6
Continuous
 62
     3
100
AcDbLine
 10
3.5
 20
115.500000000001
 30
0.0
 11
9.99999999999997
 21
115.500000000001
 31
0.0
  0
LINE
  5
15B
330
1F
100
AcDbEntity
  8
1
  6
Continuous
 62
     3
100
AcDbLine
 10
9.99999999999997
 20
115.500000000001
 30
0.0
 11
9.99999999999997
 21
111.000000000001
 31
0.0
  0
LINE
  5
15C
330
1F
100
AcDbEntity
  8
1
  6
Continuous
 62
     3
100
AcDbLine
 10
9.99999999999997
 20
111.000000000001
 30
0.0
 11
15.0
 21
111.000000000001
 31
0.0
  0
LINE
  5
15D
330
1F
100
AcDbEntity
  8
1
  6
LONG_DASHED
 62
     4
100
AcDbLine
 10
3.5
 20
113.000000000001
 30
0.0
 11
9.99999999999997
 21
113.000000000001
 31
0.0
  0
LINE
  5
15E
330
1F
100
AcDbEntity
  8
1
  6
Continuous
 62
     3
100
AcDbLine
 10
3.5
 20
113.000000000001
 30
0.0
 11
3.5
 21
115.500000000001
 31
0.0
  0
LINE
  5
15F
330
1F
100
AcDbEntity
  8
1
  6
LONG_DASHED
 62
     4
100
AcDbLine
 10
-12.0
 20
97.5000000000006
 30
0.0
 11
-12.0
 21
91.0000000000006
 31
0.0
  0
LINE
  5
160
330
1F
100
AcDbEntity
  8
1
  6
Continuous
 62
     3
100
AcDbLine
 10
-14.5
 20
97.5000000000006
 30
0.0
 11
-9.99999999999997
 21
97.5000000000006
 31
0.0
  0
LINE
  5
161
330
1F
100
AcDbEntity
  8
1
  6
Continuous
 62
     3
100
AcDbLine
 10
15.0
 20
91.0000000000006
 30
0.0
 11
-14.5
 21
91.0000000000006
 31
0.0
  0
LINE
  5
162
330
1F
100
AcDbEntity
  8
1
  6
Continuous
 62
     3
100
AcDbLine
 10
15.0
 20
109.702251008587
 30
0.0
 11
15.0
 21
92.2672133673296
 31
0.0
  0
LINE
  5
163
330
1F
100
AcDbEntity
  8
1
  6
Continuous
 62
     3
100
AcDbLine
 10
23.3837539090773
 20
109.846272397834
 30
0.0
 11
15.0
 21
111.000000000001
 31
0.0
  0
LINE
  5
164
330
1F
100
AcDbEntity
  8
1
  6
Continuous
 62
     3
100
AcDbLine
 10
23.3837539090773
 20
109.846272397834
 30
0.0
 11
23.516151755983
 21
109.828052510645
 31
0.0
  0
LINE
  5
165
330
1F
100
AcDbEntity
  8
1
  6
Continuous
 62
     3
100
AcDbLine
 10
24.0
 20
109.201604578095
 30
0.0
 11
24.0
 21
92.7983954219066
 31
0.0
  0
LINE
  5
166
330
1F
100
AcDbEntity
  8
1
  6
Continuous
 62
     3
100
AcDbLine
 10
15.0
 20
91.0000000000006
 30
0.0
 11
23.3837539090773
 21
92.1537276021672
 31
0.0
  0
LINE
  5
167
330
1F
100
AcDbEntity
  8
1
  6
Continuous
 62
     3
100
AcDbLine
 10
23.516151755983
 20
92.1719474893562
 30
0.0
 11
23.3837539090773
 21
92.1537276021672
 31
0.0
  0
LINE
  5
168
330
1F
100
AcDbEntity
  8
1
  6
Continuous
 62
     3
100
AcDbLine
 10
3.5
 20
111.000000000001
 30
0.0
 11
3.5
 21
115.500000000001
 31
0.0
  0
LINE
  5
169
330
1F
100
AcDbEntity
  8
1
  6
Continuous
 62
     3
100
AcDbLine
 10
4.90747728811183
 20
109.500000000001
 30
0.0
 11
-4.90747728811181
 21
109.500000000001
 31
0.0
  0
LINE
  5
16A
330
1F
100
AcDbEntity
  8
1
  6
Continuous
 62
     3
100
AcDbLine
 10
-4.90747728811181
 20
109.500000000001
 30
0.0
 11
-9.81495457622361
 21
101.000000000001
 31
0.0
  0
LINE
  5
16B
330
1F
100
AcDbEntity
  8
1
  6
Continuous
 62
     3
100
AcDbLine
 10
-9.81495457622361
 20
101.000000000001
 30
0.0
 11
-4.90747728811181
 21
92.5000000000006
 31
0.0
  0
LINE
  5
16C
330
1F
100
AcDbEntity
  8
1
  6
Continuous
 62
     3
100
AcDbLine
 10
-4.90747728811181
 20
92.5000000000006
 30
0.0
 11
4.90747728811181
 21
92.5000000000006
 31
0.0
  0
LINE
  5
16D
330
1F
100
AcDbEntity
  8
1
  6
Continuous
 62
     3
100
AcDbLine
 10
4.90747728811181
 20
92.5000000000006
 30
0.0
 11
9.81495457622356
 21
101.000000000001
 31
0.0
  0
LINE
  5
16E
330
1F
100
AcDbEntity
  8
1
  6
Continuous
 62
     3
100
AcDbLine
 10
9.81495457622356
 20
101.000000000001
 30
0.0
 11
4.90747728811183
 21
109.500000000001
 31
0.0
  0
LINE
  5
16F
330
1F
100
AcDbEntity
  8
1
  6
Continuous
 62
     3
100
AcDbLine
 10
-4.15247215523473
 20
103.740000000001
 30
0.0
 11
4.15247215523476
 21
103.740000000001
 31
0.0
  0
LINE
  5
170
330
1F
100
AcDbEntity
  8
1
  6
Continuous
 62
     3
100
AcDbLine
 10
4.15247215523476
 20
98.2600000000007
 30
0.0
 11
-4.15247215523473
 21
98.2600000000007
 31
0.0
  0
LINE
  5
171
330
1F
100
AcDbEntity
  8
1
  6
Continuous
 62
     3
100
AcDbLine
 10
7.5
 20
36.0
 30
0.0
 11
7.5
 21
34.0
 31
0.0
  0
LINE
  5
172
330
1F
100
AcDbEntity
  8
1
  6
Continuous
 62
     3
100
AcDbLine
 10
-7.50000000000001
 20
36.0
 30
0.0
 11
-7.50000000000001
 21
34.0
 31
0.0
  0
LINE
  5
173
330
1F
100
AcDbEntity
  8
1
  6
Continuous
 62
     3
100
AcDbLine
 10
43.7113248654051
 20
-20.9999999999995
 30
0.0
 11
29.4999999999999
 21
-21.0
 31
0.0
  0
LINE
  5
174
330
1F
100
AcDbEntity
  8
1
  6
Continuous
 62
     3
100
AcDbLine
 10
24.1999999999999
 20
-29.0
 30
0.0
 11
25.9999999999999
 21
-29.0
 31
0.0
  0
LINE
  5
175
330
1F
100
AcDbEntity
  8
1
  6
Continuous
 62
     3
100
AcDbLine
 10
43.9999999999999
 20
-20.4999999999995
 30
0.0
 11
43.7113248654051
 21
-20.9999999999995
 31
0.0
  0
LINE
  5
176
330
1F
100
AcDbEntity
  8
1
  6
Continuous
 62
     3
100
AcDbLine
 10
29.4999999999999
 20
20.9999999999999
 30
0.0
 11
43.7113248654051
 21
20.9999999999995
 31
0.0
  0
LINE
  5
177
330
1F
100
AcDbEntity
  8
1
  6
Continuous
 62
     3
100
AcDbLine
 10
43.9999999999999
 20
20.4999999999995
 30
0.0
 11
43.9999999999999
 21
-20.4999999999995
 31
0.0
  0
LINE
  5
178
330
1F
100
AcDbEntity
  8
1
  6
Continuous
 62
     3
100
AcDbLine
 10
43.7113248654051
 20
20.9999999999995
 30
0.0
 11
43.9999999999999
 21
20.4999999999995
 31
0.0
  0
LINE
  5
179
330
1F
100
AcDbEntity
  8
1
  6
DOT_CENTER
 62
     4
100
AcDbLine
 10
46.3341689955359
 20
0.0
 30
0.0
 11
-6.31788449731014
 21
0.0
 31
0.0
  0
LINE
  5
17A
330
1F
100
AcDbEntity
  8
1
  6
Continuous
 62
     3
100
AcDbLine
 10
-10.5
 20
32.3
 30
0.0
 11
-10.5
 21
28.2
 31
0.0
  0
LINE
  5
17B
330
1F
100
AcDbEntity
  8
1
  6
Continuous
 62
     3
100
AcDbLine
 10
-10.0153681107123
 20
28.0
 30
0.0
 11
-10.3
 21
28.0
 31
0.0
  0
LINE
  5
17C
330
1F
100
AcDbEntity
  8
1
  6
Continuous
 62
     3
100
AcDbLine
 10
-10.0
 20
32.5
 30
0.0
 11
-10.3
 21
32.5
 31
0.0
  0
LINE
  5
17D
330
1F
100
AcDbEntity
  8
1
  6
Continuous
 62
     3
100
AcDbLine
 10
13.0
 20
29.0
 30
0.0
 11
24.1999999999999
 21
29.0
 31
0.0
  0
LINE
  5
17E
330
1F
100
AcDbEntity
  8
1
  6
Continuous
 62
     3
100
AcDbLine
 10
10.0
 20
34.0
 30
0.0
 11
10.0
 21
32.0
 31
0.0
  0
LINE
  5
17F
330
1F
100
AcDbEntity
  8
1
  6
Continuous
 62
     3
100
AcDbLine
 10
-25.0
 20
-21.0
 30
0.0
 11
-43.7113248654052
 21
-21.0
 31
0.0
  0
LINE
  5
180
330
1F
100
AcDbEntity
  8
1
  6
Continuous
 62
     3
100
AcDbLine
 10
-43.7113248654052
 20
-21.0
 30
0.0
 11
-44.0
 21
-20.5
 31
0.0
  0
LINE
  5
181
330
1F
100
AcDbEntity
  8
1
  6
Continuous
 62
     3
100
AcDbLine
 10
-2.540707856479
 20
-28.0
 30
0.0
 11
-23.3322612870703
 21
-22.4289200488845
 31
0.0
  0
LINE
  5
182
330
1F
100
AcDbEntity
  8
1
  6
Continuous
 62
     3
100
AcDbLine
 10
6.0
 20
-28.0
 30
0.0
 11
-2.540707856479
 21
-28.0
 31
0.0
  0
LINE
  5
183
330
1F
100
AcDbEntity
  8
1
  6
Continuous
 62
     3
100
AcDbLine
 10
24.1999999999999
 20
-29.0
 30
0.0
 11
7.7320508075689
 21
-29.0
 31
0.0
  0
LINE
  5
184
330
1F
100
AcDbEntity
  8
1
  6
Continuous
 62
     3
100
AcDbLine
 10
-43.7113248654052
 20
21.0
 30
0.0
 11
-25.0
 21
21.0
 31
0.0
  0
LINE
  5
185
330
1F
100
AcDbEntity
  8
1
  6
Continuous
 62
     3
100
AcDbLine
 10
-44.0
 20
20.5
 30
0.0
 11
-43.7113248654052
 21
21.0
 31
0.0
  0
LINE
  5
186
330
1F
100
AcDbEntity
  8
1
  6
Continuous
 62
     3
100
AcDbLine
 10
24.0
 20
28.8
 30
0.0
 11
24.0
 21
-28.8
 31
0.0
  0
LINE
  5
187
330
1F
100
AcDbEntity
  8
1
  6
Continuous
 62
     3
100
AcDbLine
 10
-44.0
 20
20.5
 30
0.0
 11
-44.0
 21
-20.5
 31
0.0
  0
LINE
  5
188
330
1F
100
AcDbEntity
  8
1
  6
DOT_CENTER
 62
     4
100
AcDbLine
 10
0.0
 20
50.805727222536
 30
0.0
 11
0.0
 21
-30.8616131075029
 31
0.0
  0
LINE
  5
189
330
1F
100
AcDbEntity
  8
1
  6
Continuous
 62
     3
100
AcDbLine
 10
9.99999999999996
 20
35.7669807181667
 30
0.0
 11
10.0
 21
34.0
 31
0.0
  0
LINE
  5
18A
330
1F
100
AcDbEntity
  8
1
  6
Continuous
 62
     3
100
AcDbLine
 10
14.3328421016732
 20
38.5
 30
0.0
 11
14.7928932188134
 21
38.5
 31
0.0
  0
LINE
  5
18B
330
1F
100
AcDbEntity
  8
1
  6
Continuous
 62
     3
100
AcDbLine
 10
-9.70000000000003
 20
38.5
 30
0.0
 11
-13.3
 21
38.5
 31
0.0
  0
LINE
  5
18C
330
1F
100
AcDbEntity
  8
1
  6
Continuous
 62
     3
100
AcDbLine
 10
-9.70000000000003
 20
38.5
 30
0.0
 11
-5.00000000000001
 21
38.5
 31
0.0
  0
LINE
  5
18D
330
1F
100
AcDbEntity
  8
1
  6
Continuous
 62
     3
100
AcDbLine
 10
42.0000000000001
 20
55.5
 30
0.0
 11
120.69609559274
 21
55.5
 31
0.0
  0
LINE
  5
18E
330
1F
100
AcDbEntity
  8
1
  6
Continuous
 62
     3
100
AcDbLine
 10
33.5125733653757
 20
58.13389370893541
 30
0.0
 11
24.8271994656147
 21
50.4485198091744
 31
0.0
  0
LINE
  5
18F
330
1F
100
AcDbEntity
  8
1
  6
Continuous
 62
     3
100
AcDbLine
 10
24.0
 20
48.5331168277787
 30
0.0
 11
24.0
 21
43.9644660940673
 31
0.0
  0
LINE
  5
190
330
1F
100
AcDbEntity
  8
1
  6
Continuous
 62
     3
100
AcDbLine
 10
26.9318585400351
 20
44.7750042905427
 30
0.0
 11
37.1079778437778
 21
53.9511235942853
 31
0.0
  0
LINE
  5
191
330
1F
100
AcDbEntity
  8
1
  6
Continuous
 62
     3
100
AcDbLine
 10
16.5627416997969
 20
36.5272077938642
 30
0.0
 11
24.0
 21
43.9644660940673
 31
0.0
  0
LINE
  5
192
330
1F
100
AcDbEntity
  8
1
  6
Continuous
 62
     3
100
AcDbLine
 10
-14.5
 20
37.3
 30
0.0
 11
-14.5
 21
31.0
 31
0.0
  0
LINE
  5
193
330
1F
100
AcDbEntity
  8
1
  6
Continuous
 62
     3
100
AcDbLine
 10
-12.0
 20
35.5
 30
0.0
 11
-12.0
 21
31.0
 31
0.0
  0
LINE
  5
194
330
1F
100
AcDbEntity
  8
1
  6
Continuous
 62
     3
100
AcDbLine
 10
-14.5
 20
31.0
 30
0.0
 11
-12.0
 21
31.0
 31
0.0
  0
LINE
  5
195
330
1F
100
AcDbEntity
  8
1
  6
Continuous
 62
     3
100
AcDbLine
 10
15.1464466094067
 20
38.6464466094067
 30
0.0
 11
24.0
 21
47.5
 31
0.0
  0
LINE
  5
196
330
1F
100
AcDbEntity
  8
1
  6
Continuous
 62
     3
100
AcDbLine
 10
120.608175789651
 20
61.0
 30
0.0
 11
42.0000000000001
 21
61.0
 31
0.0
  0
LINE
  5
197
330
1F
100
AcDbEntity
  8
1
  6
Continuous
 62
     3
100
AcDbLine
 10
14.3328421016732
 20
38.5
 30
0.0
 11
5.0
 21
38.5
 31
0.0
  0
LINE
  5
198
330
1F
100
AcDbEntity
  8
1
  6
Continuous
 62
     3
100
AcDbLine
 10
-5.09999999999999
 20
38.5
 30
0.0
 11
-5.00000000000001
 21
38.5
 31
0.0
  0
LINE
  5
199
330
1F
100
AcDbEntity
  8
1
  6
Continuous
 62
     3
100
AcDbLine
 10
-10.0
 20
38.6398371070876
 30
0.0
 11
-5.09999999999999
 21
38.5
 31
0.0
  0
LINE
  5
19A
330
1F
100
AcDbEntity
  8
1
  6
DOT_CENTER
 62
     3
100
AcDbLine
 10
-86.8964356480983
 20
33.0029514816198
 30
0.0
 11
-86.8964356480983
 21
34.9657672688388
 31
0.0
  0
LINE
  5
19B
330
1F
100
AcDbEntity
  8
1
  6
Continuous
 62
     3
100
AcDbLine
 10
-90.2926620631926
 20
28.0
 30
0.0
 11
-88.5945488556455
 21
28.0
 31
0.0
  0
LINE
  5
19C
330
1F
100
AcDbEntity
  8
1
  6
Continuous
 62
     3
100
AcDbLine
 10
-88.5945488556455
 20
28.0
 30
0.0
 11
-88.5945488556455
 21
32.5
 31
0.0
  0
LINE
  5
19D
330
1F
100
AcDbEntity
  8
1
  6
Continuous
 62
     3
100
AcDbLine
 10
-88.5945488556455
 20
32.5
 30
0.0
 11
-90.2926620631926
 21
32.5
 31
0.0
  0
LINE
  5
19E
330
1F
100
AcDbEntity
  8
1
  6
Continuous
 62
     3
100
AcDbLine
 10
-90.2926620631926
 20
32.5
 30
0.0
 11
-90.2926620631926
 21
28.0
 31
0.0
  0
LINE
  5
19F
330
1F
100
AcDbEntity
  8
1
  6
Continuous
 62
     3
100
AcDbLine
 10
-87.7454922518719
 20
28.0
 30
0.0
 11
-86.0473790443247
 21
28.0
 31
0.0
  0
LINE
  5
1A0
330
1F
100
AcDbEntity
  8
1
  6
Continuous
 62
     3
100
AcDbLine
 10
-86.0473790443247
 20
28.0
 30
0.0
 11
-86.0473790443247
 21
32.5
 31
0.0
  0
LINE
  5
1A1
330
1F
100
AcDbEntity
  8
1
  6
Continuous
 62
     3
100
AcDbLine
 10
-86.0473790443247
 20
32.5
 30
0.0
 11
-87.7454922518719
 21
32.5
 31
0.0
  0
LINE
  5
1A2
330
1F
100
AcDbEntity
  8
1
  6
Continuous
 62
     3
100
AcDbLine
 10
-87.7454922518719
 20
32.5
 30
0.0
 11
-87.7454922518719
 21
28.0
 31
0.0
  0
LINE
  5
1A3
330
1F
100
AcDbEntity
  8
1
  6
Continuous
 62
     3
100
AcDbLine
 10
-85.1983224405512
 20
28.0
 30
0.0
 11
-83.500209233004
 21
28.0
 31
0.0
  0
LINE
  5
1A4
330
1F
100
AcDbEntity
  8
1
  6
Continuous
 62
     3
100
AcDbLine
 10
-83.500209233004
 20
28.0
 30
0.0
 11
-83.500209233004
 21
32.5
 31
0.0
  0
LINE
  5
1A5
330
1F
100
AcDbEntity
  8
1
  6
Continuous
 62
     3
100
AcDbLine
 10
-83.500209233004
 20
32.5
 30
0.0
 11
-85.1983224405512
 21
32.5
 31
0.0
  0
LINE
  5
1A6
330
1F
100
AcDbEntity
  8
1
  6
Continuous
 62
     3
100
AcDbLine
 10
-85.1983224405512
 20
32.5
 30
0.0
 11
-85.1983224405512
 21
28.0
 31
0.0
  0
LINE
  5
1A7
330
1F
100
AcDbEntity
  8
1
  6
Continuous
 62
     3
100
AcDbLine
 10
-96.8964356480983
 20
34.0
 30
0.0
 11
-96.8964356480983
 21
27.2213151776324
 31
0.0
  0
LINE
  5
1A8
330
1F
100
AcDbEntity
  8
1
  6
Continuous
 62
     3
100
AcDbLine
 10
-100.896435648098
 20
30.0
 30
0.0
 11
-99.8964356480983
 21
30.0
 31
0.0
  0
LINE
  5
1A9
330
1F
100
AcDbEntity
  8
1
  6
Continuous
 62
     3
100
AcDbLine
 10
-102.896435648098
 20
33.0
 30
0.0
 11
-102.896435648098
 21
32.0
 31
0.0
  0
LINE
  5
1AA
330
1F
100
AcDbEntity
  8
1
  6
Continuous
 62
     3
100
AcDbLine
 10
-76.8964356480983
 20
27.0
 30
0.0
 11
-76.8964356480983
 21
26.8328157299975
 31
0.0
  0
LINE
  5
1AB
330
1F
100
AcDbEntity
  8
1
  6
Continuous
 62
     3
100
AcDbLine
 10
-72.8964356480983
 20
30.0
 30
0.0
 11
-73.8964356480983
 21
30.0
 31
0.0
  0
LINE
  5
1AC
330
1F
100
AcDbEntity
  8
1
  6
Continuous
 62
     3
100
AcDbLine
 10
-70.8964356480983
 20
33.0
 30
0.0
 11
-70.8964356480983
 21
32.0
 31
0.0
  0
LINE
  5
1AD
330
1F
100
AcDbEntity
  8
1
  6
Continuous
 62
     3
100
AcDbLine
 10
-106.944836638787
 20
9.6500838191462
 30
0.0
 11
-96.5465194672445
 21
20.0484009906888
 31
0.0
  0
LINE
  5
1AE
330
1F
100
AcDbEntity
  8
1
  6
Continuous
 62
     3
100
AcDbLine
 10
-107.896435648098
 20
-7.35272058492637
 30
0.0
 11
-107.896435648098
 21
7.3527205849264
 31
0.0
  0
LINE
  5
1AF
330
1F
100
AcDbEntity
  8
1
  6
Continuous
 62
     3
100
AcDbLine
 10
-96.5465194672445
 20
-20.0484009906889
 30
0.0
 11
-106.944836638787
 21
-9.65008381914618
 31
0.0
  0
LINE
  5
1B0
330
1F
100
AcDbEntity
  8
1
  6
Continuous
 62
     3
100
AcDbLine
 10
-79.5437150631719
 20
-21.0
 30
0.0
 11
-94.2491562330247
 21
-21.0
 31
0.0
  0
LINE
  5
1B1
330
1F
100
AcDbEntity
  8
1
  6
Continuous
 62
     3
100
AcDbLine
 10
-66.8480346574095
 20
-9.65008381914616
 30
0.0
 11
-77.2463518289521
 21
-20.0484009906889
 31
0.0
  0
LINE
  5
1B2
330
1F
100
AcDbEntity
  8
1
  6
Continuous
 62
     3
100
AcDbLine
 10
-65.8964356480983
 20
7.3527205849264
 30
0.0
 11
-65.8964356480983
 21
0.0
 31
0.0
  0
LINE
  5
1B3
330
1F
100
AcDbEntity
  8
1
  6
Continuous
 62
     3
100
AcDbLine
 10
-77.2463518289521
 20
20.0484009906888
 30
0.0
 11
-66.8480346574095
 21
9.6500838191462
 31
0.0
  0
LINE
  5
1B4
330
1F
100
AcDbEntity
  8
1
  6
Continuous
 62
     3
100
AcDbLine
 10
-94.2491562330247
 20
21.0
 30
0.0
 11
-79.5437150631719
 21
21.0
 31
0.0
  0
LINE
  5
1B5
330
1F
100
AcDbEntity
  8
1
  6
Continuous
 62
     3
100
AcDbLine
 10
-96.8964356480983
 20
27.0
 30
0.0
 11
-96.8964356480983
 21
26.8328157299975
 31
0.0
  0
LINE
  5
1B6
330
1F
100
AcDbEntity
  8
1
  6
DOT_CENTER
 62
     4
100
AcDbLine
 10
-86.8964356480983
 20
-30.8628516235319
 30
0.0
 11
-86.8964356480983
 21
27.4505050243518
 31
0.0
  0
LINE
  5
1B7
330
1F
100
AcDbEntity
  8
1
  6
DOT_CENTER
 62
     4
100
AcDbLine
 10
-119.197552317643
 20
0.0
 30
0.0
 11
-55.4780121312209
 21
0.0
 31
0.0
  0
LINE
  5
1B8
330
1F
100
AcDbEntity
  8
1
  6
Continuous
 62
     3
100
AcDbLine
 10
-96.5465194672445
 20
20.0484009906888
 30
0.0
 11
-94.2491562330247
 21
21.0
 31
0.0
  0
LINE
  5
1B9
330
1F
100
AcDbEntity
  8
1
  6
Continuous
 62
     3
100
AcDbLine
 10
-79.5437150631719
 20
21.0
 30
0.0
 11
-77.2463518289521
 21
20.0484009906888
 31
0.0
  0
LINE
  5
1BA
330
1F
100
AcDbEntity
  8
1
  6
Continuous
 62
     3
100
AcDbLine
 10
-107.896435648098
 20
7.3527205849264
 30
0.0
 11
-106.944836638787
 21
9.6500838191462
 31
0.0
  0
LINE
  5
1BB
330
1F
100
AcDbEntity
  8
1
  6
Continuous
 62
     3
100
AcDbLine
 10
-66.8480346574095
 20
9.6500838191462
 30
0.0
 11
-65.8964356480983
 21
7.3527205849264
 31
0.0
  0
LINE
  5
1BC
330
1F
100
AcDbEntity
  8
1
  6
Continuous
 62
     3
100
AcDbLine
 10
-65.8964356480983
 20
-7.35272058492636
 30
0.0
 11
-66.8480346574095
 21
-9.65008381914616
 31
0.0
  0
LINE
  5
1BD
330
1F
100
AcDbEntity
  8
1
  6
Continuous
 62
     3
100
AcDbLine
 10
-106.944836638787
 20
-9.65008381914618
 30
0.0
 11
-107.896435648098
 21
-7.35272058492637
 31
0.0
  0
LINE
  5
1BE
330
1F
100
AcDbEntity
  8
1
  6
Continuous
 62
     3
100
AcDbLine
 10
-94.2491562330247
 20
-21.0
 30
0.0
 11
-96.5465194672445
 21
-20.0484009906889
 31
0.0
  0
LINE
  5
1BF
330
1F
100
AcDbEntity
  8
1
  6
Continuous
 62
     3
100
AcDbLine
 10
-96.5465194672445
 20
-20.0484009906889
 30
0.0
 11
-106.944836638787
 21
-9.65008381914618
 31
0.0
  0
LINE
  5
1C0
330
1F
100
AcDbEntity
  8
1
  6
Continuous
 62
     3
100
AcDbLine
 10
-77.2463518289521
 20
-20.0484009906889
 30
0.0
 11
-79.5437150631719
 21
-21.0
 31
0.0
  0
LINE
  5
1C1
330
1F
100
AcDbEntity
  8
1
  6
Continuous
 62
     3
100
AcDbLine
 10
-66.8480346574095
 20
-9.65008381914616
 30
0.0
 11
-77.2463518289521
 21
-20.0484009906889
 31
0.0
  0
LINE
  5
1C2
330
1F
100
AcDbEntity
  8
1
  6
Continuous
 62
     3
100
AcDbLine
 10
-65.8964356480983
 20
0.0
 30
0.0
 11
-65.8964356480983
 21
-7.35272058492636
 31
0.0
  0
LINE
  5
1C3
330
1F
100
AcDbEntity
  8
1
  6
Continuous
 62
     3
100
AcDbLine
 10
-23.3322612870703
 20
22.4289200488845
 30
0.0
 11
-12.2235428646924
 21
25.4054921791054
 31
0.0
  0
LINE
  5
1C4
330
1F
100
AcDbEntity
  8
1
  6
Continuous
 62
     3
100
AcDbLine
 10
-10.0
 20
34.0
 30
0.0
 11
-10.0153681107123
 21
28.0
 31
0.0
  0
LINE
  5
1C5
330
1F
100
AcDbEntity
  8
1
  6
Continuous
 62
     3
100
AcDbLine
 10
5.02500000000003
 20
40.7490964800931
 30
0.0
 11
0.57735026918962
 21
40.7490964800932
 31
0.0
  0
LINE
  5
1C6
330
1F
100
AcDbEntity
  8
1
  6
Continuous
 62
     3
100
AcDbLine
 10
0.0
 20
40.7490964800932
 30
0.0
 11
-5.09999999999999
 21
40.7490964800932
 31
0.0
  0
LINE
  5
1C7
330
1F
100
AcDbEntity
  8
1
  6
Continuous
 62
     3
100
AcDbLine
 10
5.22590351990681
 20
46.7490964800932
 30
0.0
 11
8.24999999999994
 21
46.7490964800932
 31
0.0
  0
LINE
  5
1C8
330
1F
100
AcDbEntity
  8
1
  6
Continuous
 62
     3
100
AcDbLine
 10
3.97500000000002
 20
48.0
 30
0.0
 11
5.22590351990681
 21
46.7490964800932
 31
0.0
  0
LINE
  5
1C9
330
1F
100
AcDbEntity
  8
1
  6
Continuous
 62
     3
100
AcDbLine
 10
-5.22590351990681
 20
46.7490964800932
 30
0.0
 11
5.22590351990681
 21
46.7490964800932
 31
0.0
  0
LINE
  5
1CA
330
1F
100
AcDbEntity
  8
1
  6
Continuous
 62
     3
100
AcDbLine
 10
-5.22590351990681
 20
46.7490964800932
 30
0.0
 11
-3.97499999999999
 21
48.0
 31
0.0
  0
LINE
  5
1CB
330
1F
100
AcDbEntity
  8
1
  6
Continuous
 62
     3
100
AcDbLine
 10
-3.97499999999999
 20
48.0
 30
0.0
 11
3.97500000000002
 21
48.0
 31
0.0
  0
LINE
  5
1CC
330
1F
100
AcDbEntity
  8
1
  6
Continuous
 62
     3
100
AcDbLine
 10
9.7999999999999
 20
41.6439893973371
 30
0.0
 11
8.24999999999994
 21
40.7490964800932
 31
0.0
  0
LINE
  5
1CD
330
1F
100
AcDbEntity
  8
1
  6
Continuous
 62
     3
100
AcDbLine
 10
4.21350000000001
 20
45.8542035628493
 30
0.0
 11
4.21350000000001
 21
41.6439893973371
 31
0.0
  0
LINE
  5
1CE
330
1F
100
AcDbEntity
  8
1
  6
Continuous
 62
     3
100
AcDbLine
 10
-4.21349999999998
 20
45.8542035628493
 30
0.0
 11
-4.21349999999998
 21
41.6439893973371
 31
0.0
  0
LINE
  5
1CF
330
1F
100
AcDbEntity
  8
1
  6
Continuous
 62
     3
100
AcDbLine
 10
-8.25000000000003
 20
46.7490964800932
 30
0.0
 11
-5.22590351990681
 21
46.7490964800932
 31
0.0
  0
LINE
  5
1D0
330
1F
100
AcDbEntity
  8
1
  6
Continuous
 62
     3
100
AcDbLine
 10
9.99999999999994
 20
40.6092593730056
 30
0.0
 11
9.99999999999994
 21
39.6245482400466
 31
0.0
  0
LINE
  5
1D1
330
1F
100
AcDbEntity
  8
1
  6
Continuous
 62
     3
100
AcDbLine
 10
9.99999999999994
 20
39.6245482400466
 30
0.0
 11
5.09999999999997
 21
39.7487751588026
 31
0.0
  0
LINE
  5
1D2
330
1F
100
AcDbEntity
  8
1
  6
Continuous
 62
     3
100
AcDbLine
 10
9.99999999999994
 20
40.6092593730056
 30
0.0
 11
5.09999999999997
 21
40.7490964800932
 31
0.0
  0
LINE
  5
1D3
330
1F
100
AcDbEntity
  8
1
  6
Continuous
 62
     3
100
AcDbLine
 10
5.09999999999997
 20
40.7490964800932
 30
0.0
 11
4.97499999999997
 21
40.7490964800932
 31
0.0
  0
LINE
  5
1D4
330
1F
100
AcDbEntity
  8
1
  6
Continuous
 62
     3
100
AcDbLine
 10
5.09999999999997
 20
39.7487751588026
 30
0.0
 11
4.97499999999997
 21
39.7487751588026
 31
0.0
  0
LINE
  5
1D5
330
1F
100
AcDbEntity
  8
1
  6
Continuous
 62
     3
100
AcDbLine
 10
-10.0
 20
39.6245482400466
 30
0.0
 11
-10.0
 21
40.6092593730056
 31
0.0
  0
LINE
  5
1D6
330
1F
100
AcDbEntity
  8
1
  6
Continuous
 62
     3
100
AcDbLine
 10
-5.09999999999999
 20
39.7487751588026
 30
0.0
 11
-10.0
 21
39.6245482400466
 31
0.0
  0
LINE
  5
1D7
330
1F
100
AcDbEntity
  8
1
  6
Continuous
 62
     3
100
AcDbLine
 10
-5.09999999999999
 20
40.7490964800932
 30
0.0
 11
-10.0
 21
40.6092593730056
 31
0.0
  0
LINE
  5
1D8
330
1F
100
AcDbEntity
  8
1
  6
Continuous
 62
     3
100
AcDbLine
 10
9.99999999999994
 20
39.6245482400466
 30
0.0
 11
9.99999999999994
 21
38.6398371070876
 31
0.0
  0
LINE
  5
1D9
330
1F
100
AcDbEntity
  8
1
  6
Continuous
 62
     3
100
AcDbLine
 10
5.09999999999997
 20
39.5003213212906
 30
0.0
 11
9.99999999999994
 21
39.6245482400466
 31
0.0
  0
LINE
  5
1DA
330
1F
100
AcDbEntity
  8
1
  6
Continuous
 62
     3
100
AcDbLine
 10
-10.0
 20
38.6398371070876
 30
0.0
 11
-10.0
 21
39.6245482400466
 31
0.0
  0
LINE
  5
1DB
330
1F
100
AcDbEntity
  8
1
  6
Continuous
 62
     3
100
AcDbLine
 10
-10.0
 20
39.6245482400466
 30
0.0
 11
-5.09999999999999
 21
39.5003213212906
 31
0.0
  0
LINE
  5
1DC
330
1F
100
AcDbEntity
  8
1
  6
Continuous
 62
     3
100
AcDbLine
 10
4.97499999999997
 20
39.5003213212906
 30
0.0
 11
5.09999999999997
 21
39.5003213212906
 31
0.0
  0
LINE
  5
1DD
330
1F
100
AcDbEntity
  8
1
  6
Continuous
 62
     3
100
AcDbLine
 10
8.24999999999994
 20
40.7490964800932
 30
0.0
 11
1.15488605331294
 21
40.7490964800932
 31
0.0
  0
LINE
  5
1DE
330
1F
100
AcDbEntity
  8
1
  6
Continuous
 62
     3
100
AcDbLine
 10
9.7999999999999
 20
45.8542035628493
 30
0.0
 11
8.24999999999994
 21
46.7490964800932
 31
0.0
  0
LINE
  5
1DF
330
1F
100
AcDbEntity
  8
1
  6
Continuous
 62
     3
100
AcDbLine
 10
9.7999999999999
 20
45.8542035628493
 30
0.0
 11
9.7999999999999
 21
41.6439893973371
 31
0.0
  0
LINE
  5
1E0
330
1F
100
AcDbEntity
  8
1
  6
Continuous
 62
     3
100
AcDbLine
 10
-8.25000000000003
 20
46.7490964800932
 30
0.0
 11
-9.80000000000004
 21
45.8542035628493
 31
0.0
  0
LINE
  5
1E1
330
1F
100
AcDbEntity
  8
1
  6
Continuous
 62
     3
100
AcDbLine
 10
-9.8
 20
41.6439893973371
 30
0.0
 11
-9.80000000000004
 21
45.8542035628493
 31
0.0
  0
LINE
  5
1E2
330
1F
100
AcDbEntity
  8
1
  6
Continuous
 62
     3
100
AcDbLine
 10
-8.25000000000003
 20
40.7490964800932
 30
0.0
 11
-9.8
 21
41.6439893973371
 31
0.0
  0
LINE
  5
1E3
330
1F
100
AcDbEntity
  8
1
  6
Continuous
 62
     3
100
AcDbLine
 10
8.24999999999994
 20
40.7490964800932
 30
0.0
 11
1.15488605331294
 21
40.7490964800932
 31
0.0
  0
LINE
  5
1E4
330
1F
100
AcDbEntity
  8
1
  6
Continuous
 62
     3
100
AcDbLine
 10
1.15488605331294
 20
40.7490964800932
 30
0.0
 11
-5.09999999999999
 21
40.7490964800932
 31
0.0
  0
LINE
  5
1E5
330
1F
100
AcDbEntity
  8
1
  6
Continuous
 62
     3
100
AcDbLine
 10
1.15488605331294
 20
40.7490964800932
 30
0.0
 11
-8.25000000000003
 21
40.7490964800932
 31
0.0
  0
LINE
  5
1E6
330
1F
100
AcDbEntity
  8
1
  6
Continuous
 62
     3
100
AcDbLine
 10
5.09999999999997
 20
38.5
 30
0.0
 11
9.99999999999994
 21
38.6398371070876
 31
0.0
  0
LINE
  5
1E7
330
1F
100
AcDbEntity
  8
1
  6
Continuous
 62
     3
100
AcDbLine
 10
-11.5
 20
36.0
 30
0.0
 11
15.2899494936612
 21
36.0
 31
0.0
  0
LINE
  5
1E8
330
1F
100
AcDbEntity
  8
1
  6
Continuous
 62
     3
100
AcDbLine
 10
-9.70000000000003
 20
38.5
 30
0.0
 11
0.0
 21
38.5
 31
0.0
  0
LINE
  5
1E9
330
1F
100
AcDbEntity
  8
1
  6
Continuous
 62
     3
100
AcDbLine
 10
0.0
 20
38.5
 30
0.0
 11
-5.09999999999999
 21
38.5
 31
0.0
  0
LINE
  5
1EA
330
1F
100
AcDbEntity
  8
1
  6
Continuous
 62
     3
100
AcDbLine
 10
-10.0
 20
34.0
 30
0.0
 11
-3.20000000000001
 21
34.0
 31
0.0
  0
LINE
  5
1EB
330
1F
100
AcDbEntity
  8
1
  6
Continuous
 62
     3
100
AcDbLine
 10
-3.50000000000001
 20
33.7
 30
0.0
 11
-3.50000000000001
 21
30.3
 31
0.0
  0
LINE
  5
1EC
330
1F
100
AcDbEntity
  8
1
  6
Continuous
 62
     3
100
AcDbLine
 10
-3.20000000000001
 20
34.0
 30
0.0
 11
3.2
 21
34.0
 31
0.0
  0
LINE
  5
1ED
330
1F
100
AcDbEntity
  8
1
  6
Continuous
 62
     3
100
AcDbLine
 10
3.5
 20
33.7
 30
0.0
 11
3.5
 21
30.3
 31
0.0
  0
LINE
  5
1EE
330
1F
100
AcDbEntity
  8
1
  6
Continuous
 62
     3
100
AcDbLine
 10
3.2
 20
34.0
 30
0.0
 11
10.0
 21
34.0
 31
0.0
  0
LINE
  5
1EF
330
1F
100
AcDbEntity
  8
1
  6
Continuous
 62
     3
100
AcDbLine
 10
-3.20000000000001
 20
30.0
 30
0.0
 11
3.2
 21
30.0
 31
0.0
  0
LINE
  5
1F0
330
1F
100
AcDbEntity
  8
1
  6
Continuous
 62
     3
100
AcDbLine
 10
7.0
 20
28.3508825698208
 30
0.0
 11
7.0
 21
-28.6812500386331
 31
0.0
  0
LINE
  5
1F1
330
1F
100
AcDbEntity
  8
1
  6
Continuous
 62
     3
100
AcDbLine
 10
27.9999999999999
 20
27.0
 30
0.0
 11
27.9999999999999
 21
20.0484009906889
 31
0.0
  0
LINE
  5
1F2
330
1F
100
AcDbEntity
  8
1
  6
Continuous
 62
     3
100
AcDbLine
 10
-43.7113248654052
 20
20.0484009906888
 30
0.0
 11
-24.0
 21
20.0484009906888
 31
0.0
  0
LINE
  5
1F3
330
1F
100
AcDbEntity
  8
1
  6
Continuous
 62
     3
100
AcDbLine
 10
-43.7113248654052
 20
7.3527205849264
 30
0.0
 11
-24.0
 21
7.3527205849264
 31
0.0
  0
LINE
  5
1F4
330
1F
100
AcDbEntity
  8
1
  6
Continuous
 62
     3
100
AcDbLine
 10
-43.7113248654052
 20
9.6500838191462
 30
0.0
 11
-24.0
 21
9.6500838191462
 31
0.0
  0
LINE
  5
1F5
330
1F
100
AcDbEntity
  8
1
  6
Continuous
 62
     3
100
AcDbLine
 10
-43.7113248654052
 20
-7.35272058492635
 30
0.0
 11
-24.0
 21
-7.35272058492635
 31
0.0
  0
LINE
  5
1F6
330
1F
100
AcDbEntity
  8
1
  6
Continuous
 62
     3
100
AcDbLine
 10
-43.7113248654052
 20
-9.65008381914615
 30
0.0
 11
-24.0
 21
-9.65008381914615
 31
0.0
  0
LINE
  5
1F7
330
1F
100
AcDbEntity
  8
1
  6
Continuous
 62
     3
100
AcDbLine
 10
-43.7113248654052
 20
-20.0484009906889
 30
0.0
 11
-24.0
 21
-20.0484009906889
 31
0.0
  0
LINE
  5
1F8
330
1F
100
AcDbEntity
  8
1
  6
Continuous
 62
     3
100
AcDbLine
 10
-24.0
 20
20.0484009906888
 30
0.0
 11
-24.0
 21
9.6500838191462
 31
0.0
  0
LINE
  5
1F9
330
1F
100
AcDbEntity
  8
1
  6
Continuous
 62
     3
100
AcDbLine
 10
-24.0
 20
7.3527205849264
 30
0.0
 11
-24.0
 21
-7.35272058492635
 31
0.0
  0
LINE
  5
1FA
330
1F
100
AcDbEntity
  8
1
  6
Continuous
 62
     3
100
AcDbLine
 10
-24.0
 20
-9.65008381914615
 30
0.0
 11
-24.0
 21
-20.0484009906889
 31
0.0
  0
LINE
  5
1FB
330
1F
100
AcDbEntity
  8
1
  6
Continuous
 62
     3
100
AcDbLine
 10
-43.7113248654052
 20
21.0
 30
0.0
 11
-43.7113248654052
 21
20.0484009906888
 31
0.0
  0
LINE
  5
1FC
330
1F
100
AcDbEntity
  8
1
  6
Continuous
 62
     3
100
AcDbLine
 10
-43.7113248654052
 20
9.6500838191462
 30
0.0
 11
-43.7113248654052
 21
7.3527205849264
 31
0.0
  0
LINE
  5
1FD
330
1F
100
AcDbEntity
  8
1
  6
Continuous
 62
     3
100
AcDbLine
 10
-43.7113248654052
 20
-7.35272058492635
 30
0.0
 11
-43.7113248654052
 21
-9.65008381914615
 31
0.0
  0
LINE
  5
1FE
330
1F
100
AcDbEntity
  8
1
  6
Continuous
 62
     3
100
AcDbLine
 10
-43.7113248654052
 20
-20.0484009906889
 30
0.0
 11
-43.7113248654052
 21
-21.0
 31
0.0
  0
LINE
  5
1FF
330
1F
100
AcDbEntity
  8
1
  6
Continuous
 62
     3
100
AcDbLine
 10
27.9999999999999
 20
20.0484009906889
 30
0.0
 11
43.7113248654052
 21
20.0484009906889
 31
0.0
  0
LINE
  5
200
330
1F
100
AcDbEntity
  8
1
  6
Continuous
 62
     3
100
AcDbLine
 10
27.9999999999999
 20
20.0484009906889
 30
0.0
 11
27.9999999999999
 21
9.65008381914612
 31
0.0
  0
LINE
  5
201
330
1F
100
AcDbEntity
  8
1
  6
Continuous
 62
     3
100
AcDbLine
 10
27.9999999999999
 20
9.65008381914612
 30
0.0
 11
43.7113248654052
 21
9.65008381914612
 31
0.0
  0
LINE
  5
202
330
1F
100
AcDbEntity
  8
1
  6
Continuous
 62
     3
100
AcDbLine
 10
27.9999999999999
 20
9.65008381914612
 30
0.0
 11
27.9999999999999
 21
7.3527205849264
 31
0.0
  0
LINE
  5
203
330
1F
100
AcDbEntity
  8
1
  6
Continuous
 62
     3
100
AcDbLine
 10
27.9999999999999
 20
7.3527205849264
 30
0.0
 11
43.7113248654052
 21
7.3527205849264
 31
0.0
  0
LINE
  5
204
330
1F
100
AcDbEntity
  8
1
  6
Continuous
 62
     3
100
AcDbLine
 10
27.9999999999999
 20
7.3527205849264
 30
0.0
 11
27.9999999999999
 21
-7.3527205849264
 31
0.0
  0
LINE
  5
205
330
1F
100
AcDbEntity
  8
1
  6
Continuous
 62
     3
100
AcDbLine
 10
27.9999999999999
 20
-7.3527205849264
 30
0.0
 11
43.7113248654052
 21
-7.3527205849264
 31
0.0
  0
LINE
  5
206
330
1F
100
AcDbEntity
  8
1
  6
Continuous
 62
     3
100
AcDbLine
 10
27.9999999999999
 20
-7.3527205849264
 30
0.0
 11
27.9999999999999
 21
-9.65008381914609
 31
0.0
  0
LINE
  5
207
330
1F
100
AcDbEntity
  8
1
  6
Continuous
 62
     3
100
AcDbLine
 10
27.9999999999999
 20
-9.65008381914609
 30
0.0
 11
43.7113248654052
 21
-9.65008381914609
 31
0.0
  0
LINE
  5
208
330
1F
100
AcDbEntity
  8
1
  6
Continuous
 62
     3
100
AcDbLine
 10
27.9999999999999
 20
-9.65008381914609
 30
0.0
 11
27.9999999999999
 21
-20.0484009906889
 31
0.0
  0
LINE
  5
209
330
1F
100
AcDbEntity
  8
1
  6
Continuous
 62
     3
100
AcDbLine
 10
27.9999999999999
 20
-20.0484009906889
 30
0.0
 11
43.7113248654052
 21
-20.0484009906889
 31
0.0
  0
LINE
  5
20A
330
1F
100
AcDbEntity
  8
1
  6
Continuous
 62
     3
100
AcDbLine
 10
27.9999999999999
 20
-20.0484009906889
 30
0.0
 11
27.9999999999999
 21
-27.0
 31
0.0
  0
LINE
  5
20B
330
1F
100
AcDbEntity
  8
1
  6
Continuous
 62
     3
100
AcDbLine
 10
43.7113248654051
 20
20.9999999999995
 30
0.0
 11
43.7113248654052
 21
20.0484009906889
 31
0.0
  0
LINE
  5
20C
330
1F
100
AcDbEntity
  8
1
  6
Continuous
 62
     3
100
AcDbLine
 10
43.7113248654052
 20
9.65008381914612
 30
0.0
 11
43.7113248654052
 21
7.3527205849264
 31
0.0
  0
LINE
  5
20D
330
1F
100
AcDbEntity
  8
1
  6
Continuous
 62
     3
100
AcDbLine
 10
43.7113248654052
 20
-7.3527205849264
 30
0.0
 11
43.7113248654052
 21
-9.65008381914609
 31
0.0
  0
LINE
  5
20E
330
1F
100
AcDbEntity
  8
1
  6
Continuous
 62
     3
100
AcDbLine
 10
43.7113248654052
 20
-20.0484009906889
 30
0.0
 11
43.7113248654051
 21
-20.9999999999995
 31
0.0
  0
LINE
  5
20F
330
1F
100
AcDbEntity
  8
1
  6
Continuous
 62
     3
100
AcDbLine
 10
-93.9250815847184
 20
55.5
 30
0.0
 11
-79.4931912195554
 21
55.5
 31
0.0
  0
LINE
  5
210
330
1F
100
AcDbEntity
  8
1
  6
Continuous
 62
     3
100
AcDbLine
 10
-93.7735877710524
 20
40.7490964800932
 30
0.0
 11
-80.0192835251442
 21
40.7490964800932
 31
0.0
  0
LINE
  5
211
330
1F
100
AcDbEntity
  8
1
  6
Continuous
 62
     3
100
AcDbLine
 10
-90.4964356480982
 20
40.7490964800932
 30
0.0
 11
-83.2964356480983
 21
40.7490964800932
 31
0.0
  0
LINE
  5
212
330
1F
100
AcDbEntity
  8
1
  6
Continuous
 62
     3
100
AcDbLine
 10
-91.3714356480983
 20
47.5
 30
0.0
 11
-95.3027124702577
 21
47.5
 31
0.0
  0
LINE
  5
213
330
1F
100
AcDbEntity
  8
1
  6
Continuous
 62
     3
100
AcDbLine
 10
-82.4214356480983
 20
47.5
 30
0.0
 11
-81.6705321281915
 21
46.7490964800932
 31
0.0
  0
LINE
  5
214
330
1F
100
AcDbEntity
  8
1
  6
Continuous
 62
     3
100
AcDbLine
 10
-78.4901588259389
 20
47.5
 30
0.0
 11
-82.4214356480983
 21
47.5
 31
0.0
  0
LINE
  5
215
330
1F
100
AcDbEntity
  8
1
  6
Continuous
 62
     3
100
AcDbLine
 10
-82.9214356480983
 20
48.0
 30
0.0
 11
-82.4214356480983
 21
47.5
 31
0.0
  0
LINE
  5
216
330
1F
100
AcDbEntity
  8
1
  6
Continuous
 62
     3
100
AcDbLine
 10
-93.7735877710524
 20
46.7490964800932
 30
0.0
 11
-80.0192835251442
 21
46.7490964800932
 31
0.0
  0
LINE
  5
217
330
1F
100
AcDbEntity
  8
1
  6
Continuous
 62
     3
100
AcDbLine
 10
-86.8964356480983
 20
45.8542035628493
 30
0.0
 11
-86.8964356480983
 21
41.6439893973371
 31
0.0
  0
LINE
  5
218
330
1F
100
AcDbEntity
  8
1
  6
Continuous
 62
     3
100
AcDbLine
 10
-80.0192835251442
 20
40.7490964800932
 30
0.0
 11
-78.4692835251442
 21
41.6439893973371
 31
0.0
  0
LINE
  5
219
330
1F
100
AcDbEntity
  8
1
  6
Continuous
 62
     3
100
AcDbLine
 10
-95.3235877710524
 20
41.6439893973371
 30
0.0
 11
-93.7735877710524
 21
40.7490964800932
 31
0.0
  0
LINE
  5
21A
330
1F
100
AcDbEntity
  8
1
  6
Continuous
 62
     3
100
AcDbLine
 10
-78.4692835251442
 20
45.8542035628493
 30
0.0
 11
-80.0192835251442
 21
46.7490964800932
 31
0.0
  0
LINE
  5
21B
330
1F
100
AcDbEntity
  8
1
  6
Continuous
 62
     3
100
AcDbLine
 10
-83.3964356480983
 20
31.0
 30
0.0
 11
-76.8964356480983
 21
31.0
 31
0.0
  0
LINE
  5
21C
330
1F
100
AcDbEntity
  8
1
  6
Continuous
 62
     3
100
AcDbLine
 10
-83.3964356480983
 20
36.0
 30
0.0
 11
-83.3964356480983
 21
34.0
 31
0.0
  0
LINE
  5
21D
330
1F
100
AcDbEntity
  8
1
  6
Continuous
 62
     3
100
AcDbLine
 10
-83.3964356480983
 20
34.0
 30
0.0
 11
-83.3964356480983
 21
31.0
 31
0.0
  0
LINE
  5
21E
330
1F
100
AcDbEntity
  8
1
  6
Continuous
 62
     3
100
AcDbLine
 10
-76.8964356480983
 20
34.0
 30
0.0
 11
-76.8964356480983
 21
31.0
 31
0.0
  0
LINE
  5
21F
330
1F
100
AcDbEntity
  8
1
  6
Continuous
 62
     3
100
AcDbLine
 10
-83.3964356480983
 20
38.2
 30
0.0
 11
-83.3964356480983
 21
36.0
 31
0.0
  0
LINE
  5
220
330
1F
100
AcDbEntity
  8
1
  6
Continuous
 62
     3
100
AcDbLine
 10
-76.8964356480983
 20
38.2
 30
0.0
 11
-76.8964356480983
 21
34.0
 31
0.0
  0
LINE
  5
221
330
1F
100
AcDbEntity
  8
1
  6
Continuous
 62
     3
100
AcDbLine
 10
-83.0964356480983
 20
38.5
 30
0.0
 11
-100.596435648098
 21
38.5
 31
0.0
  0
LINE
  5
222
330
1F
100
AcDbEntity
  8
1
  6
Continuous
 62
     3
100
AcDbLine
 10
-77.1964356480983
 20
38.5
 30
0.0
 11
-83.0964356480983
 21
38.5
 31
0.0
  0
LINE
  5
223
330
1F
100
AcDbEntity
  8
1
  6
Continuous
 62
     3
100
AcDbLine
 10
-78.3516796391297
 20
55.1529379774803
 30
0.0
 11
-76.8311664991073
 21
44.3620661413941
 31
0.0
  0
LINE
  5
224
330
1F
100
AcDbEntity
  8
1
  6
Continuous
 62
     3
100
AcDbLine
 10
-77.5756116639424
 20
43.798117277525
 30
0.0
 11
-77.327060180061
 21
43.798117277525
 31
0.0
  0
LINE
  5
225
330
1F
100
AcDbEntity
  8
1
  6
Continuous
 62
     3
100
AcDbLine
 10
-96.8964356480983
 20
38.5
 30
0.0
 11
-95.798654126547
 21
47.0635757308806
 31
0.0
  0
LINE
  5
226
330
1F
100
AcDbEntity
  8
1
  6
Continuous
 62
     3
100
AcDbLine
 10
-96.4658111161356
 20
43.798117277525
 30
0.0
 11
-96.2172596322542
 21
43.798117277525
 31
0.0
  0
LINE
  5
227
330
1F
100
AcDbEntity
  8
1
  6
Continuous
 62
     3
100
AcDbLine
 10
-96.9617047970893
 20
44.3620661413941
 30
0.0
 11
-95.44119165706698
 21
55.1529379774803
 31
0.0
  0
LINE
  5
228
330
1F
100
AcDbEntity
  8
1
  6
Continuous
 62
     3
100
AcDbLine
 10
-86.8964356480983
 20
61.0
 30
0.0
 11
-78.3964356480983
 21
61.0
 31
0.0
  0
LINE
  5
229
330
1F
100
AcDbEntity
  8
1
  6
Continuous
 62
     3
100
AcDbLine
 10
-95.3964356480983
 20
61.0
 30
0.0
 11
-86.8964356480983
 21
61.0
 31
0.0
  0
LINE
  5
22A
330
1F
100
AcDbEntity
  8
1
  6
Continuous
 62
     3
100
AcDbLine
 10
-81.8964356480983
 20
38.5
 30
0.0
 11
-81.7964356480983
 21
38.5
 31
0.0
  0
LINE
  5
22B
330
1F
100
AcDbEntity
  8
1
  6
Continuous
 62
     3
100
AcDbLine
 10
-77.9942171696496
 20
47.0635757308806
 30
0.0
 11
-76.8964356480983
 21
38.2
 31
0.0
  0
LINE
  5
22C
330
1F
100
AcDbEntity
  8
1
  6
Continuous
 62
     3
100
AcDbLine
 10
-86.3190853789087
 20
39.7487751588025
 30
0.0
 11
-86.8964356480983
 21
39.7487751588025
 31
0.0
  0
LINE
  5
22D
330
1F
100
AcDbEntity
  8
1
  6
Continuous
 62
     3
100
AcDbLine
 10
-83.2964356480983
 20
39.7487751588026
 30
0.0
 11
-90.4964356480982
 21
39.7487751588026
 31
0.0
  0
LINE
  5
22E
330
1F
100
AcDbEntity
  8
1
  6
Continuous
 62
     3
100
AcDbLine
 10
-86.3188998639751
 20
39.5003213212905
 30
0.0
 11
-85.7415495947855
 21
39.5003213212905
 31
0.0
  0
LINE
  5
22F
330
1F
100
AcDbEntity
  8
1
  6
Continuous
 62
     3
100
AcDbLine
 10
-95.3964356480983
 20
41.6439893973371
 30
0.0
 11
-95.3964356480983
 21
45.8542035628493
 31
0.0
  0
LINE
  5
230
330
1F
100
AcDbEntity
  8
1
  6
Continuous
 62
     3
100
AcDbLine
 10
-93.7735877710524
 20
46.7490964800932
 30
0.0
 11
-95.3235877710524
 21
45.8542035628493
 31
0.0
  0
LINE
  5
231
330
1F
100
AcDbEntity
  8
1
  6
Continuous
 62
     3
100
AcDbLine
 10
-78.3964356480983
 20
45.8542035628493
 30
0.0
 11
-78.3964356480983
 21
41.6439893973371
 31
0.0
  0
LINE
  5
232
330
1F
100
AcDbEntity
  8
1
  6
Continuous
 62
     3
100
AcDbLine
 10
-95.3964356480983
 20
39.6245482400466
 30
0.0
 11
-90.4964356480982
 21
39.5003213212906
 31
0.0
  0
LINE
  5
233
330
1F
100
AcDbEntity
  8
1
  6
Continuous
 62
     3
100
AcDbLine
 10
-95.3964356480983
 20
38.5
 30
0.0
 11
-95.3964356480983
 21
39.6245482400466
 31
0.0
  0
LINE
  5
234
330
1F
100
AcDbEntity
  8
1
  6
Continuous
 62
     3
100
AcDbLine
 10
-90.4964356480982
 20
39.5003213212906
 30
0.0
 11
-83.2964356480983
 21
39.5003213212906
 31
0.0
  0
LINE
  5
235
330
1F
100
AcDbEntity
  8
1
  6
Continuous
 62
     3
100
AcDbLine
 10
-83.2964356480983
 20
39.5003213212906
 30
0.0
 11
-78.3964356480983
 21
39.6245482400466
 31
0.0
  0
LINE
  5
236
330
1F
100
AcDbEntity
  8
1
  6
Continuous
 62
     3
100
AcDbLine
 10
-78.3964356480983
 20
39.6245482400466
 30
0.0
 11
-78.3964356480983
 21
38.5
 31
0.0
  0
LINE
  5
237
330
1F
100
AcDbEntity
  8
1
  6
Continuous
 62
     3
100
AcDbLine
 10
-90.4964356480982
 20
40.7490964800932
 30
0.0
 11
-95.3964356480983
 21
40.6092593730056
 31
0.0
  0
LINE
  5
238
330
1F
100
AcDbEntity
  8
1
  6
Continuous
 62
     3
100
AcDbLine
 10
-90.4964356480982
 20
39.7487751588026
 30
0.0
 11
-95.3964356480983
 21
39.6245482400466
 31
0.0
  0
LINE
  5
239
330
1F
100
AcDbEntity
  8
1
  6
Continuous
 62
     3
100
AcDbLine
 10
-95.3964356480983
 20
39.6245482400466
 30
0.0
 11
-95.3964356480983
 21
40.6092593730056
 31
0.0
  0
LINE
  5
23A
330
1F
100
AcDbEntity
  8
1
  6
Continuous
 62
     3
100
AcDbLine
 10
-81.7964356480983
 20
40.7490964800932
 30
0.0
 11
-81.9214356480983
 21
40.7490964800932
 31
0.0
  0
LINE
  5
23B
330
1F
100
AcDbEntity
  8
1
  6
Continuous
 62
     3
100
AcDbLine
 10
-78.3964356480983
 20
40.6092593730056
 30
0.0
 11
-83.2964356480983
 21
40.7490964800932
 31
0.0
  0
LINE
  5
23C
330
1F
100
AcDbEntity
  8
1
  6
Continuous
 62
     3
100
AcDbLine
 10
-78.3964356480983
 20
39.6245482400466
 30
0.0
 11
-83.2964356480983
 21
39.7487751588026
 31
0.0
  0
LINE
  5
23D
330
1F
100
AcDbEntity
  8
1
  6
Continuous
 62
     3
100
AcDbLine
 10
-78.3964356480983
 20
40.6092593730056
 30
0.0
 11
-78.3964356480983
 21
39.6245482400466
 31
0.0
  0
LINE
  5
23E
330
1F
100
AcDbEntity
  8
1
  6
Continuous
 62
     3
100
AcDbLine
 10
-90.8714356480983
 20
48.0
 30
0.0
 11
-82.9214356480983
 21
48.0
 31
0.0
  0
LINE
  5
23F
330
1F
100
AcDbEntity
  8
1
  6
Continuous
 62
     3
100
AcDbLine
 10
-92.1223391680051
 20
46.7490964800932
 30
0.0
 11
-90.8714356480983
 21
48.0
 31
0.0
  0
LINE
  5
240
330
1F
100
AcDbEntity
  8
1
  6
DOT_CENTER
 62
     4
100
AcDbLine
 10
-86.8964356480983
 20
34.0
 30
0.0
 11
-86.8964356480983
 21
63.84590409258411
 31
0.0
  0
LINE
  5
241
330
1F
100
AcDbEntity
  8
1
  6
Continuous
 62
     3
100
AcDbLine
 10
-76.8964356480983
 20
26.5935015411217
 30
0.0
 11
-76.8964356480983
 21
30.5150483025024
 31
0.0
  0
LINE
  5
242
330
1F
100
AcDbEntity
  8
1
  6
Continuous
 62
     3
100
AcDbLine
 10
-101.396435648098
 20
37.7
 30
0.0
 11
-101.396435648098
 21
34.0
 31
0.0
  0
LINE
  5
243
330
1F
100
AcDbEntity
  8
1
  6
Continuous
 62
     3
100
AcDbLine
 10
-101.396435648098
 20
37.7
 30
0.0
 11
-101.396435648098
 21
34.0
 31
0.0
  0
LINE
  5
244
330
1F
100
AcDbEntity
  8
1
  6
Continuous
 62
     3
100
AcDbLine
 10
-96.8964356480983
 20
37.9999999999999
 30
0.0
 11
-96.8964356480983
 21
36.0
 31
0.0
  0
LINE
  5
245
330
1F
100
AcDbEntity
  8
1
  6
Continuous
 62
     3
100
AcDbLine
 10
-96.8964356480983
 20
35.2
 30
0.0
 11
-96.8964356480983
 21
34.0
 31
0.0
  0
LINE
  5
246
330
1F
100
AcDbEntity
  8
1
  6
Continuous
 62
     3
100
AcDbLine
 10
-96.8964356480983
 20
36.0
 30
0.0
 11
-96.0964356480983
 21
36.0
 31
0.0
  0
LINE
  5
247
330
1F
100
AcDbEntity
  8
1
  6
Continuous
 62
     3
100
AcDbLine
 10
-96.0964356480983
 20
36.0
 30
0.0
 11
-83.3964356480983
 21
36.0
 31
0.0
  0
LINE
  5
248
330
1F
100
AcDbEntity
  8
1
  6
Continuous
 62
     3
100
AcDbLine
 10
-94.3964356480983
 20
36.0
 30
0.0
 11
-94.3964356480983
 21
34.0
 31
0.0
  0
LINE
  5
249
330
1F
100
AcDbEntity
  8
1
  6
Continuous
 62
     3
100
AcDbLine
 10
-100.596435648098
 20
38.5
 30
0.0
 11
-76.8964356480983
 21
38.5
 31
0.0
  0
LINE
  5
24A
330
1F
100
AcDbEntity
  8
1
  6
Continuous
 62
     3
100
AcDbLine
 10
-76.8964356480983
 20
34.0
 30
0.0
 11
-71.8964356480983
 21
34.0
 31
0.0
  0
LINE
  5
24B
330
1F
100
AcDbEntity
  8
1
  6
Continuous
 62
     3
100
AcDbLine
 10
-101.896435648098
 20
34.0
 30
0.0
 11
-83.3964356480983
 21
34.0
 31
0.0
  0
LINE
  5
24C
330
1F
100
AcDbEntity
  8
1
  6
Continuous
 62
     3
100
AcDbLine
 10
-44.0
 20
121.500000000001
 30
0.0
 11
-43.7113248654052
 21
122.000000000001
 31
0.0
  0
LINE
  5
24D
330
1F
100
AcDbEntity
  8
1
  6
Continuous
 62
     3
100
AcDbLine
 10
-44.0
 20
121.500000000001
 30
0.0
 11
-44.0
 21
101.000000000001
 31
0.0
  0
LINE
  5
24E
330
1F
100
AcDbEntity
  8
1
  6
Continuous
 62
     3
100
AcDbLine
 10
-43.7113248654052
 20
122.000000000001
 30
0.0
 11
-43.7113248654052
 21
121.500000000001
 31
0.0
  0
LINE
  5
24F
330
1F
100
AcDbEntity
  8
1
  6
Continuous
 62
     3
100
AcDbLine
 10
-43.7113248654052
 20
110.650083819147
 30
0.0
 11
-43.7113248654052
 21
108.352720584927
 31
0.0
  0
LINE
  5
250
330
1F
100
AcDbEntity
  8
1
  6
DASH_CENTER
 62
     3
100
AcDbLine
 10
47.4375300912875
 20
105.751144559812
 30
0.0
 11
47.7375300912875
 21
105.051144559812
 31
0.0
  0
LINE
  5
251
330
1F
100
AcDbEntity
  8
1
  6
DASH_CENTER
 62
     3
100
AcDbLine
 10
47.7375300912875
 20
105.051144559812
 30
0.0
 11
48.5375300912875
 21
104.551144559812
 31
0.0
  0
LINE
  5
252
330
1F
100
AcDbEntity
  8
1
  6
DASH_CENTER
 62
     3
100
AcDbLine
 10
48.5375300912875
 20
104.551144559812
 30
0.0
 11
49.4375300912875
 21
104.451144559812
 31
0.0
  0
LINE
  5
253
330
1F
100
AcDbEntity
  8
1
  6
DASH_CENTER
 62
     3
100
AcDbLine
 10
49.4375300912875
 20
104.451144559812
 30
0.0
 11
50.3375300912875
 21
104.551144559812
 31
0.0
  0
LINE
  5
254
330
1F
100
AcDbEntity
  8
1
  6
DASH_CENTER
 62
     3
100
AcDbLine
 10
50.3375300912875
 20
104.551144559812
 30
0.0
 11
51.1375300912875
 21
105.051144559812
 31
0.0
  0
LINE
  5
255
330
1F
100
AcDbEntity
  8
1
  6
DASH_CENTER
 62
     3
100
AcDbLine
 10
51.1375300912875
 20
105.051144559812
 30
0.0
 11
51.4375300912875
 21
105.751144559812
 31
0.0
  0
LINE
  5
256
330
1F
100
AcDbEntity
  8
1
  6
DASH_CENTER
 62
     3
100
AcDbLine
 10
51.4375300912875
 20
105.751144559812
 30
0.0
 11
51.1375300912875
 21
106.451144559812
 31
0.0
  0
LINE
  5
257
330
1F
100
AcDbEntity
  8
1
  6
DASH_CENTER
 62
     3
100
AcDbLine
 10
51.1375300912875
 20
106.451144559812
 30
0.0
 11
50.3375300912875
 21
106.951144559812
 31
0.0
  0
LINE
  5
258
330
1F
100
AcDbEntity
  8
1
  6
DASH_CENTER
 62
     3
100
AcDbLine
 10
50.3375300912875
 20
106.951144559812
 30
0.0
 11
49.4375300912875
 21
107.051144559812
 31
0.0
  0
LINE
  5
259
330
1F
100
AcDbEntity
  8
1
  6
DASH_CENTER
 62
     3
100
AcDbLine
 10
49.4375300912875
 20
107.051144559812
 30
0.0
 11
48.5375300912875
 21
106.951144559812
 31
0.0
  0
LINE
  5
25A
330
1F
100
AcDbEntity
  8
1
  6
DASH_CENTER
 62
     3
100
AcDbLine
 10
48.5375300912875
 20
106.951144559812
 30
0.0
 11
47.7375300912875
 21
106.451144559812
 31
0.0
  0
LINE
  5
25B
330
1F
100
AcDbEntity
  8
1
  6
DASH_CENTER
 62
     3
100
AcDbLine
 10
47.7375300912875
 20
106.451144559812
 30
0.0
 11
47.4375300912875
 21
105.751144559812
 31
0.0
  0
LINE
  5
25C
330
1F
100
AcDbEntity
  8
1
  6
DASH_CENTER
 62
     3
100
AcDbLine
 10
48.2375300912875
 20
97.2483797011284
 30
0.0
 11
47.8375300912875
 21
96.9483797011284
 31
0.0
  0
LINE
  5
25D
330
1F
100
AcDbEntity
  8
1
  6
DASH_CENTER
 62
     3
100
AcDbLine
 10
47.8375300912875
 20
96.9483797011284
 30
0.0
 11
47.5375300912875
 21
96.5483797011284
 31
0.0
  0
LINE
  5
25E
330
1F
100
AcDbEntity
  8
1
  6
DASH_CENTER
 62
     3
100
AcDbLine
 10
47.5375300912875
 20
96.5483797011284
 30
0.0
 11
47.5375300912875
 21
96.0483797011284
 31
0.0
  0
LINE
  5
25F
330
1F
100
AcDbEntity
  8
1
  6
DASH_CENTER
 62
     3
100
AcDbLine
 10
47.5375300912875
 20
96.0483797011284
 30
0.0
 11
47.5375300912875
 21
95.6483797011284
 31
0.0
  0
LINE
  5
260
330
1F
100
AcDbEntity
  8
1
  6
DASH_CENTER
 62
     3
100
AcDbLine
 10
47.5375300912875
 20
95.6483797011284
 30
0.0
 11
47.7375300912875
 21
95.4483797011284
 31
0.0
  0
LINE
  5
261
330
1F
100
AcDbEntity
  8
1
  6
DASH_CENTER
 62
     3
100
AcDbLine
 10
47.7375300912875
 20
95.4483797011284
 30
0.0
 11
47.9375300912875
 21
95.0483797011284
 31
0.0
  0
LINE
  5
262
330
1F
100
AcDbEntity
  8
1
  6
DASH_CENTER
 62
     3
100
AcDbLine
 10
47.9375300912875
 20
95.0483797011284
 30
0.0
 11
48.3375300912875
 21
94.9483797011284
 31
0.0
  0
LINE
  5
263
330
1F
100
AcDbEntity
  8
1
  6
DASH_CENTER
 62
     3
100
AcDbLine
 10
48.3375300912875
 20
94.9483797011284
 30
0.0
 11
48.9375300912875
 21
95.0483797011284
 31
0.0
  0
LINE
  5
264
330
1F
100
AcDbEntity
  8
1
  6
DASH_CENTER
 62
     3
100
AcDbLine
 10
48.9375300912875
 20
95.0483797011284
 30
0.0
 11
49.1375300912875
 21
95.3483797011284
 31
0.0
  0
LINE
  5
265
330
1F
100
AcDbEntity
  8
1
  6
DASH_CENTER
 62
     3
100
AcDbLine
 10
49.1375300912875
 20
95.3483797011284
 30
0.0
 11
49.3375300912875
 21
95.5483797011284
 31
0.0
  0
LINE
  5
266
330
1F
100
AcDbEntity
  8
1
  6
DASH_CENTER
 62
     3
100
AcDbLine
 10
49.3375300912875
 20
95.5483797011284
 30
0.0
 11
49.4375300912875
 21
96.0483797011284
 31
0.0
  0
LINE
  5
267
330
1F
100
AcDbEntity
  8
1
  6
DASH_CENTER
 62
     3
100
AcDbLine
 10
49.4375300912875
 20
96.0483797011284
 30
0.0
 11
49.4375300912875
 21
96.5483797011284
 31
0.0
  0
LINE
  5
268
330
1F
100
AcDbEntity
  8
1
  6
DASH_CENTER
 62
     3
100
AcDbLine
 10
49.4375300912875
 20
96.5483797011284
 30
0.0
 11
49.5375300912875
 21
96.8483797011284
 31
0.0
  0
LINE
  5
269
330
1F
100
AcDbEntity
  8
1
  6
DASH_CENTER
 62
     3
100
AcDbLine
 10
49.5375300912875
 20
96.8483797011284
 30
0.0
 11
49.9375300912875
 21
97.2483797011284
 31
0.0
  0
LINE
  5
26A
330
1F
100
AcDbEntity
  8
1
  6
DASH_CENTER
 62
     3
100
AcDbLine
 10
49.9375300912875
 20
97.2483797011284
 30
0.0
 11
50.5375300912875
 21
97.3483797011284
 31
0.0
  0
LINE
  5
26B
330
1F
100
AcDbEntity
  8
1
  6
DASH_CENTER
 62
     3
100
AcDbLine
 10
50.5375300912875
 20
97.3483797011284
 30
0.0
 11
51.0375300912875
 21
97.2483797011284
 31
0.0
  0
LINE
  5
26C
330
1F
100
AcDbEntity
  8
1
  6
DASH_CENTER
 62
     3
100
AcDbLine
 10
51.0375300912875
 20
97.2483797011284
 30
0.0
 11
51.3375300912875
 21
96.8483797011284
 31
0.0
  0
LINE
  5
26D
330
1F
100
AcDbEntity
  8
1
  6
DASH_CENTER
 62
     3
100
AcDbLine
 10
51.3375300912875
 20
96.8483797011284
 30
0.0
 11
51.4375300912875
 21
96.5483797011284
 31
0.0
  0
LINE
  5
26E
330
1F
100
AcDbEntity
  8
1
  6
DASH_CENTER
 62
     3
100
AcDbLine
 10
51.4375300912875
 20
96.5483797011284
 30
0.0
 11
51.4375300912875
 21
96.0483797011284
 31
0.0
  0
LINE
  5
26F
330
1F
100
AcDbEntity
  8
1
  6
DASH_CENTER
 62
     3
100
AcDbLine
 10
51.4375300912875
 20
96.0483797011284
 30
0.0
 11
51.3375300912875
 21
95.5483797011284
 31
0.0
  0
LINE
  5
270
330
1F
100
AcDbEntity
  8
1
  6
DASH_CENTER
 62
     3
100
AcDbLine
 10
51.3375300912875
 20
95.5483797011284
 30
0.0
 11
51.0375300912875
 21
95.2483797011284
 31
0.0
  0
LINE
  5
271
330
1F
100
AcDbEntity
  8
1
  6
DASH_CENTER
 62
     3
100
AcDbLine
 10
51.0375300912875
 20
95.2483797011284
 30
0.0
 11
50.5375300912875
 21
94.9483797011284
 31
0.0
  0
LINE
  5
272
330
1F
100
AcDbEntity
  8
1
  6
DOT_CENTER
 62
     4
100
AcDbLine
 10
-19.351187431116
 20
0.0
 30
0.0
 11
-46.2643521375121
 21
0.0
 31
0.0
  0
LINE
  5
273
330
1F
100
AcDbEntity
  8
1
  6
DASH_CENTER
 62
     3
100
AcDbLine
 10
89.2728850377117
 20
102.32368577663
 30
0.0
 11
89.0448850377117
 21
102.72368577663
 31
0.0
  0
LINE
  5
274
330
1F
100
AcDbEntity
  8
1
  6
DASH_CENTER
 62
     3
100
AcDbLine
 10
89.0448850377117
 20
102.72368577663
 30
0.0
 11
88.8738850377117
 21
102.92368577663
 31
0.0
  0
LINE
  5
275
330
1F
100
AcDbEntity
  8
1
  6
DASH_CENTER
 62
     3
100
AcDbLine
 10
88.8738850377117
 20
102.92368577663
 30
0.0
 11
88.5888850377117
 21
103.02368577663
 31
0.0
  0
LINE
  5
276
330
1F
100
AcDbEntity
  8
1
  6
DASH_CENTER
 62
     3
100
AcDbLine
 10
88.5888850377117
 20
103.02368577663
 30
0.0
 11
88.3608850377117
 21
102.92368577663
 31
0.0
  0
LINE
  5
277
330
1F
100
AcDbEntity
  8
1
  6
DASH_CENTER
 62
     3
100
AcDbLine
 10
88.3608850377117
 20
102.92368577663
 30
0.0
 11
88.2468850377117
 21
102.72368577663
 31
0.0
  0
LINE
  5
278
330
1F
100
AcDbEntity
  8
1
  6
DASH_CENTER
 62
     3
100
AcDbLine
 10
88.2468850377117
 20
102.72368577663
 30
0.0
 11
88.0188850377117
 21
102.32368577663
 31
0.0
  0
LINE
  5
279
330
1F
100
AcDbEntity
  8
1
  6
DASH_CENTER
 62
     3
100
AcDbLine
 10
88.0188850377117
 20
102.32368577663
 30
0.0
 11
87.9618850377117
 21
101.82368577663
 31
0.0
  0
LINE
  5
27A
330
1F
100
AcDbEntity
  8
1
  6
DASH_CENTER
 62
     3
100
AcDbLine
 10
87.9618850377117
 20
101.82368577663
 30
0.0
 11
87.9618850377117
 21
100.22368577663
 31
0.0
  0
LINE
  5
27B
330
1F
100
AcDbEntity
  8
1
  6
DASH_CENTER
 62
     3
100
AcDbLine
 10
87.9618850377117
 20
100.22368577663
 30
0.0
 11
88.0188850377117
 21
99.7236857766301
 31
0.0
  0
LINE
  5
27C
330
1F
100
AcDbEntity
  8
1
  6
DASH_CENTER
 62
     3
100
AcDbLine
 10
88.0188850377117
 20
99.7236857766301
 30
0.0
 11
88.1898850377117
 21
99.3236857766301
 31
0.0
  0
LINE
  5
27D
330
1F
100
AcDbEntity
  8
1
  6
DASH_CENTER
 62
     3
100
AcDbLine
 10
88.1898850377117
 20
99.3236857766301
 30
0.0
 11
88.5888850377117
 21
99.0236857766301
 31
0.0
  0
LINE
  5
27E
330
1F
100
AcDbEntity
  8
1
  6
DASH_CENTER
 62
     3
100
AcDbLine
 10
88.5888850377117
 20
99.0236857766301
 30
0.0
 11
88.9308850377117
 21
99.1236857766301
 31
0.0
  0
LINE
  5
27F
330
1F
100
AcDbEntity
  8
1
  6
DASH_CENTER
 62
     3
100
AcDbLine
 10
88.9308850377117
 20
99.1236857766301
 30
0.0
 11
89.1018850377117
 21
99.5236857766301
 31
0.0
  0
LINE
  5
280
330
1F
100
AcDbEntity
  8
1
  6
DASH_CENTER
 62
     3
100
AcDbLine
 10
89.1018850377117
 20
99.5236857766301
 30
0.0
 11
89.2728850377117
 21
100.22368577663
 31
0.0
  0
LINE
  5
281
330
1F
100
AcDbEntity
  8
1
  6
DASH_CENTER
 62
     3
100
AcDbLine
 10
89.2728850377117
 20
100.22368577663
 30
0.0
 11
89.1588850377117
 21
100.72368577663
 31
0.0
  0
LINE
  5
282
330
1F
100
AcDbEntity
  8
1
  6
DASH_CENTER
 62
     3
100
AcDbLine
 10
89.1588850377117
 20
100.72368577663
 30
0.0
 11
89.1018850377117
 21
101.02368577663
 31
0.0
  0
LINE
  5
283
330
1F
100
AcDbEntity
  8
1
  6
DASH_CENTER
 62
     3
100
AcDbLine
 10
89.1018850377117
 20
101.02368577663
 30
0.0
 11
88.8738850377117
 21
101.42368577663
 31
0.0
  0
LINE
  5
284
330
1F
100
AcDbEntity
  8
1
  6
DASH_CENTER
 62
     3
100
AcDbLine
 10
88.8738850377117
 20
101.42368577663
 30
0.0
 11
88.5888850377117
 21
101.52368577663
 31
0.0
  0
LINE
  5
285
330
1F
100
AcDbEntity
  8
1
  6
DASH_CENTER
 62
     3
100
AcDbLine
 10
88.5888850377117
 20
101.52368577663
 30
0.0
 11
88.3038850377117
 21
101.42368577663
 31
0.0
  0
LINE
  5
286
330
1F
100
AcDbEntity
  8
1
  6
DASH_CENTER
 62
     3
100
AcDbLine
 10
88.3038850377117
 20
101.42368577663
 30
0.0
 11
88.1328850377117
 21
101.02368577663
 31
0.0
  0
LINE
  5
287
330
1F
100
AcDbEntity
  8
1
  6
DASH_CENTER
 62
     3
100
AcDbLine
 10
88.1328850377117
 20
101.02368577663
 30
0.0
 11
87.9618850377117
 21
100.22368577663
 31
0.0
  0
LINE
  5
288
330
1F
100
AcDbEntity
  8
1
  6
DASH_CENTER
 62
     3
100
AcDbLine
 10
91.2678850377117
 20
103.02368577663
 30
0.0
 11
90.8688850377117
 21
102.72368577663
 31
0.0
  0
LINE
  5
289
330
1F
100
AcDbEntity
  8
1
  6
DASH_CENTER
 62
     3
100
AcDbLine
 10
90.8688850377117
 20
102.72368577663
 30
0.0
 11
90.6408850377117
 21
102.12368577663
 31
0.0
  0
LINE
  5
28A
330
1F
100
AcDbEntity
  8
1
  6
DASH_CENTER
 62
     3
100
AcDbLine
 10
90.6408850377117
 20
102.12368577663
 30
0.0
 11
90.5268850377117
 21
101.02368577663
 31
0.0
  0
LINE
  5
28B
330
1F
100
AcDbEntity
  8
1
  6
DASH_CENTER
 62
     3
100
AcDbLine
 10
90.5268850377117
 20
101.02368577663
 30
0.0
 11
90.6408850377117
 21
99.9236857766301
 31
0.0
  0
LINE
  5
28C
330
1F
100
AcDbEntity
  8
1
  6
DASH_CENTER
 62
     3
100
AcDbLine
 10
90.6408850377117
 20
99.9236857766301
 30
0.0
 11
90.8688850377117
 21
99.3236857766301
 31
0.0
  0
LINE
  5
28D
330
1F
100
AcDbEntity
  8
1
  6
DASH_CENTER
 62
     3
100
AcDbLine
 10
90.8688850377117
 20
99.3236857766301
 30
0.0
 11
91.2678850377117
 21
99.0236857766301
 31
0.0
  0
LINE
  5
28E
330
1F
100
AcDbEntity
  8
1
  6
DASH_CENTER
 62
     3
100
AcDbLine
 10
91.2678850377117
 20
99.0236857766301
 30
0.0
 11
91.6668850377117
 21
99.3236857766301
 31
0.0
  0
LINE
  5
28F
330
1F
100
AcDbEntity
  8
1
  6
DASH_CENTER
 62
     3
100
AcDbLine
 10
91.6668850377117
 20
99.3236857766301
 30
0.0
 11
91.9518850377117
 21
99.9236857766301
 31
0.0
  0
LINE
  5
290
330
1F
100
AcDbEntity
  8
1
  6
DASH_CENTER
 62
     3
100
AcDbLine
 10
91.9518850377117
 20
99.9236857766301
 30
0.0
 11
92.0088850377117
 21
101.02368577663
 31
0.0
  0
LINE
  5
291
330
1F
100
AcDbEntity
  8
1
  6
DASH_CENTER
 62
     3
100
AcDbLine
 10
92.0088850377117
 20
101.02368577663
 30
0.0
 11
91.9518850377117
 21
102.12368577663
 31
0.0
  0
LINE
  5
292
330
1F
100
AcDbEntity
  8
1
  6
DASH_CENTER
 62
     3
100
AcDbLine
 10
91.9518850377117
 20
102.12368577663
 30
0.0
 11
91.6668850377117
 21
102.72368577663
 31
0.0
  0
LINE
  5
293
330
1F
100
AcDbEntity
  8
1
  6
DASH_CENTER
 62
     3
100
AcDbLine
 10
91.6668850377117
 20
102.72368577663
 30
0.0
 11
91.2678850377117
 21
103.02368577663
 31
0.0
  0
LINE
  5
294
330
1F
100
AcDbEntity
  8
1
  6
DASH_CENTER
 62
     3
100
AcDbLine
 10
93.9468850377117
 20
103.02368577663
 30
0.0
 11
93.5478850377117
 21
102.72368577663
 31
0.0
  0
LINE
  5
295
330
1F
100
AcDbEntity
  8
1
  6
DASH_CENTER
 62
     3
100
AcDbLine
 10
93.5478850377117
 20
102.72368577663
 30
0.0
 11
93.3198850377117
 21
102.12368577663
 31
0.0
  0
LINE
  5
296
330
1F
100
AcDbEntity
  8
1
  6
DASH_CENTER
 62
     3
100
AcDbLine
 10
93.3198850377117
 20
102.12368577663
 30
0.0
 11
93.2058850377117
 21
101.02368577663
 31
0.0
  0
LINE
  5
297
330
1F
100
AcDbEntity
  8
1
  6
DASH_CENTER
 62
     3
100
AcDbLine
 10
93.2058850377117
 20
101.02368577663
 30
0.0
 11
93.3198850377117
 21
99.9236857766301
 31
0.0
  0
LINE
  5
298
330
1F
100
AcDbEntity
  8
1
  6
DASH_CENTER
 62
     3
100
AcDbLine
 10
93.3198850377117
 20
99.9236857766301
 30
0.0
 11
93.5478850377117
 21
99.3236857766301
 31
0.0
  0
LINE
  5
299
330
1F
100
AcDbEntity
  8
1
  6
DASH_CENTER
 62
     3
100
AcDbLine
 10
93.5478850377117
 20
99.3236857766301
 30
0.0
 11
93.9468850377117
 21
99.0236857766301
 31
0.0
  0
LINE
  5
29A
330
1F
100
AcDbEntity
  8
1
  6
DASH_CENTER
 62
     3
100
AcDbLine
 10
93.9468850377117
 20
99.0236857766301
 30
0.0
 11
94.3458850377117
 21
99.3236857766301
 31
0.0
  0
LINE
  5
29B
330
1F
100
AcDbEntity
  8
1
  6
DASH_CENTER
 62
     3
100
AcDbLine
 10
94.3458850377117
 20
99.3236857766301
 30
0.0
 11
94.6308850377117
 21
99.9236857766301
 31
0.0
  0
LINE
  5
29C
330
1F
100
AcDbEntity
  8
1
  6
DASH_CENTER
 62
     3
100
AcDbLine
 10
94.6308850377117
 20
99.9236857766301
 30
0.0
 11
94.6878850377117
 21
101.02368577663
 31
0.0
  0
LINE
  5
29D
330
1F
100
AcDbEntity
  8
1
  6
DASH_CENTER
 62
     3
100
AcDbLine
 10
94.6878850377117
 20
101.02368577663
 30
0.0
 11
94.6308850377117
 21
102.12368577663
 31
0.0
  0
LINE
  5
29E
330
1F
100
AcDbEntity
  8
1
  6
DASH_CENTER
 62
     3
100
AcDbLine
 10
94.6308850377117
 20
102.12368577663
 30
0.0
 11
94.3458850377117
 21
102.72368577663
 31
0.0
  0
LINE
  5
29F
330
1F
100
AcDbEntity
  8
1
  6
DASH_CENTER
 62
     3
100
AcDbLine
 10
94.3458850377117
 20
102.72368577663
 30
0.0
 11
93.9468850377117
 21
103.02368577663
 31
0.0
  0
LINE
  5
2A0
330
1F
100
AcDbEntity
  8
1
  6
DASH_CENTER
 62
     3
100
AcDbLine
 10
97.4238850377117
 20
103.02368577663
 30
0.0
 11
97.9938850377117
 21
99.0236857766301
 31
0.0
  0
LINE
  5
2A1
330
1F
100
AcDbEntity
  8
1
  6
DASH_CENTER
 62
     3
100
AcDbLine
 10
97.9938850377117
 20
99.0236857766301
 30
0.0
 11
98.4498850377117
 21
102.92368577663
 31
0.0
  0
LINE
  5
2A2
330
1F
100
AcDbEntity
  8
1
  6
DASH_CENTER
 62
     3
100
AcDbLine
 10
98.4498850377117
 20
102.92368577663
 30
0.0
 11
98.9628850377117
 21
99.0236857766301
 31
0.0
  0
LINE
  5
2A3
330
1F
100
AcDbEntity
  8
1
  6
DASH_CENTER
 62
     3
100
AcDbLine
 10
98.9628850377117
 20
99.0236857766301
 30
0.0
 11
99.4188850377117
 21
103.02368577663
 31
0.0
  0
LINE
  5
2A4
330
1F
100
AcDbEntity
  8
1
  6
DASH_CENTER
 62
     3
100
AcDbLine
 10
100.216885037712
 20
99.0236857766301
 30
0.0
 11
100.045885037712
 21
99.0236857766301
 31
0.0
  0
LINE
  5
2A5
330
1F
100
AcDbEntity
  8
1
  6
DASH_CENTER
 62
     3
100
AcDbLine
 10
100.045885037712
 20
99.0236857766301
 30
0.0
 11
100.045885037712
 21
99.3236857766301
 31
0.0
  0
LINE
  5
2A6
330
1F
100
AcDbEntity
  8
1
  6
DASH_CENTER
 62
     3
100
AcDbLine
 10
100.045885037712
 20
99.3236857766301
 30
0.0
 11
100.216885037712
 21
99.3236857766301
 31
0.0
  0
LINE
  5
2A7
330
1F
100
AcDbEntity
  8
1
  6
DASH_CENTER
 62
     3
100
AcDbLine
 10
100.216885037712
 20
99.3236857766301
 30
0.0
 11
100.216885037712
 21
99.0236857766301
 31
0.0
  0
LINE
  5
2A8
330
1F
100
AcDbEntity
  8
1
  6
DASH_CENTER
 62
     3
100
AcDbLine
 10
100.159885037712
 20
99.1236857766301
 30
0.0
 11
100.102885037712
 21
99.1236857766301
 31
0.0
  0
LINE
  5
2A9
330
1F
100
AcDbEntity
  8
1
  6
DASH_CENTER
 62
     3
100
AcDbLine
 10
100.102885037712
 20
99.1236857766301
 30
0.0
 11
100.102885037712
 21
99.2236857766301
 31
0.0
  0
LINE
  5
2AA
330
1F
100
AcDbEntity
  8
1
  6
DASH_CENTER
 62
     3
100
AcDbLine
 10
100.102885037712
 20
99.2236857766301
 30
0.0
 11
100.159885037712
 21
99.2236857766301
 31
0.0
  0
LINE
  5
2AB
330
1F
100
AcDbEntity
  8
1
  6
DASH_CENTER
 62
     3
100
AcDbLine
 10
100.159885037712
 20
99.2236857766301
 30
0.0
 11
100.159885037712
 21
99.1236857766301
 31
0.0
  0
LINE
  5
2AC
330
1F
100
AcDbEntity
  8
1
  6
DASH_CENTER
 62
     3
100
AcDbLine
 10
101.869885037712
 20
103.02368577663
 30
0.0
 11
101.470885037712
 21
102.72368577663
 31
0.0
  0
LINE
  5
2AD
330
1F
100
AcDbEntity
  8
1
  6
DASH_CENTER
 62
     3
100
AcDbLine
 10
101.470885037712
 20
102.72368577663
 30
0.0
 11
101.185885037712
 21
101.92368577663
 31
0.0
  0
LINE
  5
2AE
330
1F
100
AcDbEntity
  8
1
  6
DASH_CENTER
 62
     3
100
AcDbLine
 10
101.185885037712
 20
101.92368577663
 30
0.0
 11
101.128885037712
 21
101.02368577663
 31
0.0
  0
LINE
  5
2AF
330
1F
100
AcDbEntity
  8
1
  6
DASH_CENTER
 62
     3
100
AcDbLine
 10
101.128885037712
 20
101.02368577663
 30
0.0
 11
101.185885037712
 21
100.12368577663
 31
0.0
  0
LINE
  5
2B0
330
1F
100
AcDbEntity
  8
1
  6
DASH_CENTER
 62
     3
100
AcDbLine
 10
101.185885037712
 20
100.12368577663
 30
0.0
 11
101.470885037712
 21
99.3236857766301
 31
0.0
  0
LINE
  5
2B1
330
1F
100
AcDbEntity
  8
1
  6
DASH_CENTER
 62
     3
100
AcDbLine
 10
101.470885037712
 20
99.3236857766301
 30
0.0
 11
101.869885037712
 21
99.0236857766301
 31
0.0
  0
LINE
  5
2B2
330
1F
100
AcDbEntity
  8
1
  6
DASH_CENTER
 62
     3
100
AcDbLine
 10
101.869885037712
 20
99.0236857766301
 30
0.0
 11
102.268885037712
 21
99.3236857766301
 31
0.0
  0
LINE
  5
2B3
330
1F
100
AcDbEntity
  8
1
  6
DASH_CENTER
 62
     3
100
AcDbLine
 10
102.268885037712
 20
99.3236857766301
 30
0.0
 11
102.553885037712
 21
100.12368577663
 31
0.0
  0
LINE
  5
2B4
330
1F
100
AcDbEntity
  8
1
  6
DASH_CENTER
 62
     3
100
AcDbLine
 10
102.553885037712
 20
100.12368577663
 30
0.0
 11
102.610885037712
 21
101.02368577663
 31
0.0
  0
LINE
  5
2B5
330
1F
100
AcDbEntity
  8
1
  6
DASH_CENTER
 62
     3
100
AcDbLine
 10
102.610885037712
 20
101.02368577663
 30
0.0
 11
102.553885037712
 21
101.92368577663
 31
0.0
  0
LINE
  5
2B6
330
1F
100
AcDbEntity
  8
1
  6
DASH_CENTER
 62
     3
100
AcDbLine
 10
102.553885037712
 20
101.92368577663
 30
0.0
 11
102.268885037712
 21
102.72368577663
 31
0.0
  0
LINE
  5
2B7
330
1F
100
AcDbEntity
  8
1
  6
DASH_CENTER
 62
     3
100
AcDbLine
 10
102.268885037712
 20
102.72368577663
 30
0.0
 11
101.869885037712
 21
103.02368577663
 31
0.0
  0
LINE
  5
2B8
330
1F
100
AcDbEntity
  8
1
  6
DASH_CENTER
 62
     3
100
AcDbLine
 10
103.636885037712
 20
99.0236857766301
 30
0.0
 11
103.465885037712
 21
99.0236857766301
 31
0.0
  0
LINE
  5
2B9
330
1F
100
AcDbEntity
  8
1
  6
DASH_CENTER
 62
     3
100
AcDbLine
 10
103.465885037712
 20
99.0236857766301
 30
0.0
 11
103.465885037712
 21
99.3236857766301
 31
0.0
  0
LINE
  5
2BA
330
1F
100
AcDbEntity
  8
1
  6
DASH_CENTER
 62
     3
100
AcDbLine
 10
103.465885037712
 20
99.3236857766301
 30
0.0
 11
103.636885037712
 21
99.3236857766301
 31
0.0
  0
LINE
  5
2BB
330
1F
100
AcDbEntity
  8
1
  6
DASH_CENTER
 62
     3
100
AcDbLine
 10
103.636885037712
 20
99.3236857766301
 30
0.0
 11
103.636885037712
 21
99.0236857766301
 31
0.0
  0
LINE
  5
2BC
330
1F
100
AcDbEntity
  8
1
  6
DASH_CENTER
 62
     3
100
AcDbLine
 10
103.579885037712
 20
99.1236857766301
 30
0.0
 11
103.522885037712
 21
99.1236857766301
 31
0.0
  0
LINE
  5
2BD
330
1F
100
AcDbEntity
  8
1
  6
DASH_CENTER
 62
     3
100
AcDbLine
 10
103.522885037712
 20
99.1236857766301
 30
0.0
 11
103.522885037712
 21
99.2236857766301
 31
0.0
  0
LINE
  5
2BE
330
1F
100
AcDbEntity
  8
1
  6
DASH_CENTER
 62
     3
100
AcDbLine
 10
103.522885037712
 20
99.2236857766301
 30
0.0
 11
103.579885037712
 21
99.2236857766301
 31
0.0
  0
LINE
  5
2BF
330
1F
100
AcDbEntity
  8
1
  6
DASH_CENTER
 62
     3
100
AcDbLine
 10
103.579885037712
 20
99.2236857766301
 30
0.0
 11
103.579885037712
 21
99.1236857766301
 31
0.0
  0
LINE
  5
2C0
330
1F
100
AcDbEntity
  8
1
  6
DASH_CENTER
 62
     3
100
AcDbLine
 10
106.030885037712
 20
102.12368577663
 30
0.0
 11
105.859885037712
 21
102.52368577663
 31
0.0
  0
LINE
  5
2C1
330
1F
100
AcDbEntity
  8
1
  6
DASH_CENTER
 62
     3
100
AcDbLine
 10
105.859885037712
 20
102.52368577663
 30
0.0
 11
105.745885037712
 21
102.72368577663
 31
0.0
  0
LINE
  5
2C2
330
1F
100
AcDbEntity
  8
1
  6
DASH_CENTER
 62
     3
100
AcDbLine
 10
105.745885037712
 20
102.72368577663
 30
0.0
 11
105.631885037712
 21
102.92368577663
 31
0.0
  0
LINE
  5
2C3
330
1F
100
AcDbEntity
  8
1
  6
DASH_CENTER
 62
     3
100
AcDbLine
 10
105.631885037712
 20
102.92368577663
 30
0.0
 11
105.289885037712
 21
103.02368577663
 31
0.0
  0
LINE
  5
2C4
330
1F
100
AcDbEntity
  8
1
  6
DASH_CENTER
 62
     3
100
AcDbLine
 10
105.289885037712
 20
103.02368577663
 30
0.0
 11
105.004885037712
 21
102.92368577663
 31
0.0
  0
LINE
  5
2C5
330
1F
100
AcDbEntity
  8
1
  6
DASH_CENTER
 62
     3
100
AcDbLine
 10
105.004885037712
 20
102.92368577663
 30
0.0
 11
104.833885037712
 21
102.62368577663
 31
0.0
  0
LINE
  5
2C6
330
1F
100
AcDbEntity
  8
1
  6
DASH_CENTER
 62
     3
100
AcDbLine
 10
104.833885037712
 20
102.62368577663
 30
0.0
 11
104.719885037712
 21
102.32368577663
 31
0.0
  0
LINE
  5
2C7
330
1F
100
AcDbEntity
  8
1
  6
DASH_CENTER
 62
     3
100
AcDbLine
 10
104.719885037712
 20
102.32368577663
 30
0.0
 11
104.605885037712
 21
101.52368577663
 31
0.0
  0
LINE
  5
2C8
330
1F
100
AcDbEntity
  8
1
  6
DASH_CENTER
 62
     3
100
AcDbLine
 10
104.605885037712
 20
101.52368577663
 30
0.0
 11
104.548885037712
 21
101.02368577663
 31
0.0
  0
LINE
  5
2C9
330
1F
100
AcDbEntity
  8
1
  6
DASH_CENTER
 62
     3
100
AcDbLine
 10
104.548885037712
 20
101.02368577663
 30
0.0
 11
104.605885037712
 21
100.52368577663
 31
0.0
  0
LINE
  5
2CA
330
1F
100
AcDbEntity
  8
1
  6
DASH_CENTER
 62
     3
100
AcDbLine
 10
104.605885037712
 20
100.52368577663
 30
0.0
 11
104.662885037712
 21
99.9236857766301
 31
0.0
  0
LINE
  5
2CB
330
1F
100
AcDbEntity
  8
1
  6
DASH_CENTER
 62
     3
100
AcDbLine
 10
104.662885037712
 20
99.9236857766301
 30
0.0
 11
104.719885037712
 21
99.7236857766301
 31
0.0
  0
LINE
  5
2CC
330
1F
100
AcDbEntity
  8
1
  6
DASH_CENTER
 62
     3
100
AcDbLine
 10
104.719885037712
 20
99.7236857766301
 30
0.0
 11
104.947885037712
 21
99.1236857766301
 31
0.0
  0
LINE
  5
2CD
330
1F
100
AcDbEntity
  8
1
  6
DASH_CENTER
 62
     3
100
AcDbLine
 10
104.947885037712
 20
99.1236857766301
 30
0.0
 11
105.289885037712
 21
99.0236857766301
 31
0.0
  0
LINE
  5
2CE
330
1F
100
AcDbEntity
  8
1
  6
DASH_CENTER
 62
     3
100
AcDbLine
 10
105.289885037712
 20
99.0236857766301
 30
0.0
 11
105.631885037712
 21
99.1236857766301
 31
0.0
  0
LINE
  5
2CF
330
1F
100
AcDbEntity
  8
1
  6
DASH_CENTER
 62
     3
100
AcDbLine
 10
105.631885037712
 20
99.1236857766301
 30
0.0
 11
105.802885037712
 21
99.4236857766301
 31
0.0
  0
LINE
  5
2D0
330
1F
100
AcDbEntity
  8
1
  6
DASH_CENTER
 62
     3
100
AcDbLine
 10
105.802885037712
 20
99.4236857766301
 30
0.0
 11
105.973885037712
 21
99.7236857766301
 31
0.0
  0
LINE
  5
2D1
330
1F
100
AcDbEntity
  8
1
  6
DASH_CENTER
 62
     3
100
AcDbLine
 10
105.973885037712
 20
99.7236857766301
 30
0.0
 11
106.030885037712
 21
100.12368577663
 31
0.0
  0
LINE
  5
2D2
330
1F
100
AcDbEntity
  8
1
  6
DASH_CENTER
 62
     3
100
AcDbLine
 10
106.030885037712
 20
100.12368577663
 30
0.0
 11
106.030885037712
 21
100.92368577663
 31
0.0
  0
LINE
  5
2D3
330
1F
100
AcDbEntity
  8
1
  6
DASH_CENTER
 62
     3
100
AcDbLine
 10
106.030885037712
 20
100.92368577663
 30
0.0
 11
105.403885037712
 21
100.92368577663
 31
0.0
  0
LINE
  5
2D4
330
1F
100
AcDbEntity
  8
1
  6
DASH_CENTER
 62
     3
100
AcDbLine
 10
107.056885037712
 20
99.0236857766303
 30
0.0
 11
106.885885037712
 21
99.0236857766303
 31
0.0
  0
LINE
  5
2D5
330
1F
100
AcDbEntity
  8
1
  6
DASH_CENTER
 62
     3
100
AcDbLine
 10
106.885885037712
 20
99.0236857766303
 30
0.0
 11
106.885885037712
 21
99.3236857766303
 31
0.0
  0
LINE
  5
2D6
330
1F
100
AcDbEntity
  8
1
  6
DASH_CENTER
 62
     3
100
AcDbLine
 10
106.885885037712
 20
99.3236857766303
 30
0.0
 11
107.056885037712
 21
99.3236857766303
 31
0.0
  0
LINE
  5
2D7
330
1F
100
AcDbEntity
  8
1
  6
DASH_CENTER
 62
     3
100
AcDbLine
 10
107.056885037712
 20
99.3236857766303
 30
0.0
 11
107.056885037712
 21
99.0236857766303
 31
0.0
  0
LINE
  5
2D8
330
1F
100
AcDbEntity
  8
1
  6
DASH_CENTER
 62
     3
100
AcDbLine
 10
106.999885037712
 20
99.1236857766303
 30
0.0
 11
106.942885037712
 21
99.1236857766301
 31
0.0
  0
LINE
  5
2D9
330
1F
100
AcDbEntity
  8
1
  6
DASH_CENTER
 62
     3
100
AcDbLine
 10
106.942885037712
 20
99.1236857766301
 30
0.0
 11
106.942885037712
 21
99.2236857766303
 31
0.0
  0
LINE
  5
2DA
330
1F
100
AcDbEntity
  8
1
  6
DASH_CENTER
 62
     3
100
AcDbLine
 10
106.942885037712
 20
99.2236857766303
 30
0.0
 11
106.999885037712
 21
99.2236857766303
 31
0.0
  0
LINE
  5
2DB
330
1F
100
AcDbEntity
  8
1
  6
DASH_CENTER
 62
     3
100
AcDbLine
 10
106.999885037712
 20
99.2236857766303
 30
0.0
 11
106.999885037712
 21
99.1236857766303
 31
0.0
  0
LINE
  5
2DC
330
1F
100
AcDbEntity
  8
1
  6
Continuous
 62
     3
100
AcDbLine
 10
25.9999999999999
 20
29.0
 30
0.0
 11
24.1999999999999
 21
29.0
 31
0.0
  0
LINE
  5
2DD
330
1F
100
AcDbEntity
  8
1
  6
Continuous
 62
     3
100
AcDbLine
 10
-2.54070785647892
 20
25.5393366337608
 30
0.0
 11
-2.540707856479
 21
-28.0
 31
0.0
  0
LINE
  5
2DE
330
1F
100
AcDbEntity
  8
1
  6
Continuous
 62
     3
100
AcDbLine
 10
-2.54070785647892
 20
73.5834927180466
 30
0.0
 11
-2.54070785647892
 21
85.0000000000006
 31
0.0
  0
LINE
  5
2DF
330
1F
100
AcDbEntity
  8
1
  6
Continuous
 62
     3
100
AcDbLine
 10
-2.54070785647892
 20
128.220680131495
 30
0.0
 11
-2.54070785647892
 21
117.000000000001
 31
0.0
  0
LINE
  5
2E0
330
1F
100
AcDbEntity
  8
1
  6
Continuous
 62
     3
100
AcDbLine
 10
5.02500000000003
 20
38.4999999999999
 30
0.0
 11
0.0
 21
38.5
 31
0.0
  0
LINE
  5
2E1
330
1F
100
AcDbEntity
  8
1
  6
Continuous
 62
     3
100
AcDbLine
 10
-5.09999999999999
 20
39.5003213212906
 30
0.0
 11
1.15488605331279
 21
39.5003213212904
 31
0.0
  0
LINE
  5
2E2
330
1F
100
AcDbEntity
  8
1
  6
Continuous
 62
     3
100
AcDbLine
 10
1.15488605331279
 20
39.5003213212904
 30
0.0
 11
5.02500000000003
 21
39.5003213212903
 31
0.0
  0
LINE
  5
2E3
330
1F
100
AcDbEntity
  8
1
  6
Continuous
 62
     3
100
AcDbLine
 10
-12.6275734593804
 20
2.02296605294998
 30
0.0
 11
-12.6275734593804
 21
8.02296605294998
 31
0.0
  0
LINE
  5
2E4
330
1F
100
AcDbEntity
  8
1
  6
Continuous
 62
     3
100
AcDbLine
 10
-12.6275734593804
 20
8.02296605294998
 30
0.0
 11
-13.2275734593804
 21
8.02296605294998
 31
0.0
  0
LINE
  5
2E5
330
1F
100
AcDbEntity
  8
1
  6
Continuous
 62
     3
100
AcDbLine
 10
-13.2275734593804
 20
8.02296605294998
 30
0.0
 11
-13.3025734593804
 21
7.79796605294998
 31
0.0
  0
LINE
  5
2E6
330
1F
100
AcDbEntity
  8
1
  6
Continuous
 62
     3
100
AcDbLine
 10
-13.3025734593804
 20
7.79796605294998
 30
0.0
 11
-13.5275734593804
 21
7.49796605294998
 31
0.0
  0
LINE
  5
2E7
330
1F
100
AcDbEntity
  8
1
  6
Continuous
 62
     3
100
AcDbLine
 10
-13.5275734593804
 20
7.49796605294998
 30
0.0
 11
-13.7525734593804
 21
7.27296605294998
 31
0.0
  0
LINE
  5
2E8
330
1F
100
AcDbEntity
  8
1
  6
Continuous
 62
     3
100
AcDbLine
 10
-13.7525734593804
 20
7.27296605294998
 30
0.0
 11
-14.0525734593804
 21
7.12296605294998
 31
0.0
  0
LINE
  5
2E9
330
1F
100
AcDbEntity
  8
1
  6
Continuous
 62
     3
100
AcDbLine
 10
-14.0525734593804
 20
7.12296605294998
 30
0.0
 11
-14.2775734593804
 21
7.04796605294998
 31
0.0
  0
LINE
  5
2EA
330
1F
100
AcDbEntity
  8
1
  6
Continuous
 62
     3
100
AcDbLine
 10
-14.2775734593804
 20
7.04796605294998
 30
0.0
 11
-14.6525734593804
 21
6.97296605294998
 31
0.0
  0
LINE
  5
2EB
330
1F
100
AcDbEntity
  8
1
  6
Continuous
 62
     3
100
AcDbLine
 10
-14.6525734593804
 20
6.97296605294998
 30
0.0
 11
-14.8025734593804
 21
6.97296605294998
 31
0.0
  0
LINE
  5
2EC
330
1F
100
AcDbEntity
  8
1
  6
Continuous
 62
     3
100
AcDbLine
 10
-14.8025734593804
 20
6.97296605294998
 30
0.0
 11
-14.8025734593804
 21
6.37296605294998
 31
0.0
  0
LINE
  5
2ED
330
1F
100
AcDbEntity
  8
1
  6
Continuous
 62
     3
100
AcDbLine
 10
-14.8025734593804
 20
6.37296605294998
 30
0.0
 11
-13.3775734593804
 21
6.37296605294998
 31
0.0
  0
LINE
  5
2EE
330
1F
100
AcDbEntity
  8
1
  6
Continuous
 62
     3
100
AcDbLine
 10
-13.3775734593804
 20
6.37296605294998
 30
0.0
 11
-13.3775734593804
 21
2.02296605294998
 31
0.0
  0
LINE
  5
2EF
330
1F
100
AcDbEntity
  8
1
  6
Continuous
 62
     3
100
AcDbLine
 10
-13.3775734593804
 20
2.02296605294998
 30
0.0
 11
-12.6275734593804
 21
2.02296605294998
 31
0.0
  0
LINE
  5
2F0
330
1F
100
AcDbEntity
  8
1
  6
Continuous
 62
     3
100
AcDbLine
 10
-17.125
 20
-2.52443632173402
 30
0.0
 11
-17.0875
 21
-2.87443632173402
 31
0.0
  0
LINE
  5
2F1
330
1F
100
AcDbEntity
  8
1
  6
Continuous
 62
     3
100
AcDbLine
 10
-17.0875
 20
-2.87443632173402
 30
0.0
 11
-17.0125
 21
-3.12443632173402
 31
0.0
  0
LINE
  5
2F2
330
1F
100
AcDbEntity
  8
1
  6
Continuous
 62
     3
100
AcDbLine
 10
-17.0125
 20
-3.12443632173402
 30
0.0
 11
-16.8625
 21
-3.32443632173401
 31
0.0
  0
LINE
  5
2F3
330
1F
100
AcDbEntity
  8
1
  6
Continuous
 62
     3
100
AcDbLine
 10
-16.8625
 20
-3.32443632173401
 30
0.0
 11
-16.7125
 21
-3.42443632173402
 31
0.0
  0
LINE
  5
2F4
330
1F
100
AcDbEntity
  8
1
  6
Continuous
 62
     3
100
AcDbLine
 10
-16.7125
 20
-3.42443632173402
 30
0.0
 11
-16.5625
 21
-3.47443632173401
 31
0.0
  0
LINE
  5
2F5
330
1F
100
AcDbEntity
  8
1
  6
Continuous
 62
     3
100
AcDbLine
 10
-16.5625
 20
-3.47443632173401
 30
0.0
 11
-16.3375
 21
-3.52443632173402
 31
0.0
  0
LINE
  5
2F6
330
1F
100
AcDbEntity
  8
1
  6
Continuous
 62
     3
100
AcDbLine
 10
-16.3375
 20
-3.52443632173402
 30
0.0
 11
-16.15
 21
-3.52443632173402
 31
0.0
  0
LINE
  5
2F7
330
1F
100
AcDbEntity
  8
1
  6
Continuous
 62
     3
100
AcDbLine
 10
-16.15
 20
-3.52443632173402
 30
0.0
 11
-15.85
 21
-3.47443632173401
 31
0.0
  0
LINE
  5
2F8
330
1F
100
AcDbEntity
  8
1
  6
Continuous
 62
     3
100
AcDbLine
 10
-15.85
 20
-3.47443632173401
 30
0.0
 11
-15.625
 21
-3.37443632173402
 31
0.0
  0
LINE
  5
2F9
330
1F
100
AcDbEntity
  8
1
  6
Continuous
 62
     3
100
AcDbLine
 10
-15.625
 20
-3.37443632173402
 30
0.0
 11
-15.475
 21
-3.27443632173402
 31
0.0
  0
LINE
  5
2FA
330
1F
100
AcDbEntity
  8
1
  6
Continuous
 62
     3
100
AcDbLine
 10
-15.475
 20
-3.27443632173402
 30
0.0
 11
-15.3625
 21
-3.07443632173401
 31
0.0
  0
LINE
  5
2FB
330
1F
100
AcDbEntity
  8
1
  6
Continuous
 62
     3
100
AcDbLine
 10
-15.3625
 20
-3.07443632173401
 30
0.0
 11
-15.325
 21
-2.92443632173402
 31
0.0
  0
LINE
  5
2FC
330
1F
100
AcDbEntity
  8
1
  6
Continuous
 62
     3
100
AcDbLine
 10
-15.325
 20
-2.92443632173402
 30
0.0
 11
-15.3625
 21
-2.72443632173401
 31
0.0
  0
LINE
  5
2FD
330
1F
100
AcDbEntity
  8
1
  6
Continuous
 62
     3
100
AcDbLine
 10
-15.3625
 20
-2.72443632173401
 30
0.0
 11
-15.4375
 21
-2.62443632173402
 31
0.0
  0
LINE
  5
2FE
330
1F
100
AcDbEntity
  8
1
  6
Continuous
 62
     3
100
AcDbLine
 10
-15.4375
 20
-2.62443632173402
 30
0.0
 11
-15.625
 21
-2.52443632173402
 31
0.0
  0
LINE
  5
2FF
330
1F
100
AcDbEntity
  8
1
  6
Continuous
 62
     3
100
AcDbLine
 10
-15.625
 20
-2.52443632173402
 30
0.0
 11
-16.1875
 21
-2.32443632173401
 31
0.0
  0
LINE
  5
300
330
1F
100
AcDbEntity
  8
1
  6
Continuous
 62
     3
100
AcDbLine
 10
-16.1875
 20
-2.32443632173401
 30
0.0
 11
-16.6
 21
-2.17443632173402
 31
0.0
  0
LINE
  5
301
330
1F
100
AcDbEntity
  8
1
  6
Continuous
 62
     3
100
AcDbLine
 10
-16.6
 20
-2.17443632173402
 30
0.0
 11
-16.975
 21
-1.97443632173402
 31
0.0
  0
LINE
  5
302
330
1F
100
AcDbEntity
  8
1
  6
Continuous
 62
     3
100
AcDbLine
 10
-16.975
 20
-1.97443632173402
 30
0.0
 11
-17.3125
 21
-1.67443632173402
 31
0.0
  0
LINE
  5
303
330
1F
100
AcDbEntity
  8
1
  6
Continuous
 62
     3
100
AcDbLine
 10
-17.3125
 20
-1.67443632173402
 30
0.0
 11
-17.425
 21
-1.42443632173402
 31
0.0
  0
LINE
  5
304
330
1F
100
AcDbEntity
  8
1
  6
Continuous
 62
     3
100
AcDbLine
 10
-17.425
 20
-1.42443632173402
 30
0.0
 11
-17.4625
 21
-1.17443632173402
 31
0.0
  0
LINE
  5
305
330
1F
100
AcDbEntity
  8
1
  6
Continuous
 62
     3
100
AcDbLine
 10
-17.4625
 20
-1.17443632173402
 30
0.0
 11
-17.4625
 21
-1.07443632173401
 31
0.0
  0
LINE
  5
306
330
1F
100
AcDbEntity
  8
1
  6
Continuous
 62
     3
100
AcDbLine
 10
-17.4625
 20
-1.07443632173401
 30
0.0
 11
-17.425
 21
-0.92443632173402
 31
0.0
  0
LINE
  5
307
330
1F
100
AcDbEntity
  8
1
  6
Continuous
 62
     3
100
AcDbLine
 10
-17.425
 20
-0.92443632173402
 30
0.0
 11
-17.35
 21
-0.77443632173402
 31
0.0
  0
LINE
  5
308
330
1F
100
AcDbEntity
  8
1
  6
Continuous
 62
     3
100
AcDbLine
 10
-17.35
 20
-0.77443632173402
 30
0.0
 11
-17.2
 21
-0.52443632173402
 31
0.0
  0
LINE
  5
309
330
1F
100
AcDbEntity
  8
1
  6
Continuous
 62
     3
100
AcDbLine
 10
-17.2
 20
-0.52443632173402
 30
0.0
 11
-16.975
 21
-0.27443632173402
 31
0.0
  0
LINE
  5
30A
330
1F
100
AcDbEntity
  8
1
  6
Continuous
 62
     3
100
AcDbLine
 10
-16.975
 20
-0.27443632173402
 30
0.0
 11
-16.825
 21
-0.17443632173401
 31
0.0
  0
LINE
  5
30B
330
1F
100
AcDbEntity
  8
1
  6
Continuous
 62
     3
100
AcDbLine
 10
-16.825
 20
-0.17443632173401
 30
0.0
 11
-16.6
 21
-0.07443632173401
 31
0.0
  0
LINE
  5
30C
330
1F
100
AcDbEntity
  8
1
  6
Continuous
 62
     3
100
AcDbLine
 10
-16.6
 20
-0.07443632173401
 30
0.0
 11
-16.375
 21
-0.02443632173402
 31
0.0
  0
LINE
  5
30D
330
1F
100
AcDbEntity
  8
1
  6
Continuous
 62
     3
100
AcDbLine
 10
-16.375
 20
-0.02443632173402
 30
0.0
 11
-16.15
 21
-0.02443632173402
 31
0.0
  0
LINE
  5
30E
330
1F
100
AcDbEntity
  8
1
  6
Continuous
 62
     3
100
AcDbLine
 10
-16.15
 20
-0.02443632173402
 30
0.0
 11
-15.925
 21
-0.07443632173401
 31
0.0
  0
LINE
  5
30F
330
1F
100
AcDbEntity
  8
1
  6
Continuous
 62
     3
100
AcDbLine
 10
-15.925
 20
-0.07443632173401
 30
0.0
 11
-15.6625
 21
-0.17443632173401
 31
0.0
  0
LINE
  5
310
330
1F
100
AcDbEntity
  8
1
  6
Continuous
 62
     3
100
AcDbLine
 10
-15.6625
 20
-0.17443632173401
 30
0.0
 11
-15.475
 21
-0.27443632173402
 31
0.0
  0
LINE
  5
311
330
1F
100
AcDbEntity
  8
1
  6
Continuous
 62
     3
100
AcDbLine
 10
-15.475
 20
-0.27443632173402
 30
0.0
 11
-15.25
 21
-0.52443632173402
 31
0.0
  0
LINE
  5
312
330
1F
100
AcDbEntity
  8
1
  6
Continuous
 62
     3
100
AcDbLine
 10
-15.25
 20
-0.52443632173402
 30
0.0
 11
-15.1375
 21
-0.77443632173402
 31
0.0
  0
LINE
  5
313
330
1F
100
AcDbEntity
  8
1
  6
Continuous
 62
     3
100
AcDbLine
 10
-15.1375
 20
-0.77443632173402
 30
0.0
 11
-15.0625
 21
-1.12443632173401
 31
0.0
  0
LINE
  5
314
330
1F
100
AcDbEntity
  8
1
  6
Continuous
 62
     3
100
AcDbLine
 10
-15.0625
 20
-1.12443632173401
 30
0.0
 11
-15.4375
 21
-1.12443632173401
 31
0.0
  0
LINE
  5
315
330
1F
100
AcDbEntity
  8
1
  6
Continuous
 62
     3
100
AcDbLine
 10
-15.4375
 20
-1.12443632173401
 30
0.0
 11
-15.5125
 21
-0.87443632173402
 31
0.0
  0
LINE
  5
316
330
1F
100
AcDbEntity
  8
1
  6
Continuous
 62
     3
100
AcDbLine
 10
-15.5125
 20
-0.87443632173402
 30
0.0
 11
-15.7
 21
-0.67443632173402
 31
0.0
  0
LINE
  5
317
330
1F
100
AcDbEntity
  8
1
  6
Continuous
 62
     3
100
AcDbLine
 10
-15.7
 20
-0.67443632173402
 30
0.0
 11
-15.925
 21
-0.57443632173401
 31
0.0
  0
LINE
  5
318
330
1F
100
AcDbEntity
  8
1
  6
Continuous
 62
     3
100
AcDbLine
 10
-15.925
 20
-0.57443632173401
 30
0.0
 11
-16.15
 21
-0.52443632173402
 31
0.0
  0
LINE
  5
319
330
1F
100
AcDbEntity
  8
1
  6
Continuous
 62
     3
100
AcDbLine
 10
-16.15
 20
-0.52443632173402
 30
0.0
 11
-16.3375
 21
-0.52443632173402
 31
0.0
  0
LINE
  5
31A
330
1F
100
AcDbEntity
  8
1
  6
Continuous
 62
     3
100
AcDbLine
 10
-16.3375
 20
-0.52443632173402
 30
0.0
 11
-16.5625
 21
-0.57443632173401
 31
0.0
  0
LINE
  5
31B
330
1F
100
AcDbEntity
  8
1
  6
Continuous
 62
     3
100
AcDbLine
 10
-16.5625
 20
-0.57443632173401
 30
0.0
 11
-16.7875
 21
-0.67443632173402
 31
0.0
  0
LINE
  5
31C
330
1F
100
AcDbEntity
  8
1
  6
Continuous
 62
     3
100
AcDbLine
 10
-16.7875
 20
-0.67443632173402
 30
0.0
 11
-16.9
 21
-0.77443632173402
 31
0.0
  0
LINE
  5
31D
330
1F
100
AcDbEntity
  8
1
  6
Continuous
 62
     3
100
AcDbLine
 10
-16.9
 20
-0.77443632173402
 30
0.0
 11
-17.05
 21
-0.97443632173402
 31
0.0
  0
LINE
  5
31E
330
1F
100
AcDbEntity
  8
1
  6
Continuous
 62
     3
100
AcDbLine
 10
-17.05
 20
-0.97443632173402
 30
0.0
 11
-17.0875
 21
-1.17443632173402
 31
0.0
  0
LINE
  5
31F
330
1F
100
AcDbEntity
  8
1
  6
Continuous
 62
     3
100
AcDbLine
 10
-17.0875
 20
-1.17443632173402
 30
0.0
 11
-17.0875
 21
-1.27443632173402
 31
0.0
  0
LINE
  5
320
330
1F
100
AcDbEntity
  8
1
  6
Continuous
 62
     3
100
AcDbLine
 10
-17.0875
 20
-1.27443632173402
 30
0.0
 11
-17.0125
 21
-1.47443632173402
 31
0.0
  0
LINE
  5
321
330
1F
100
AcDbEntity
  8
1
  6
Continuous
 62
     3
100
AcDbLine
 10
-17.0125
 20
-1.47443632173402
 30
0.0
 11
-16.75
 21
-1.67443632173402
 31
0.0
  0
LINE
  5
322
330
1F
100
AcDbEntity
  8
1
  6
Continuous
 62
     3
100
AcDbLine
 10
-16.75
 20
-1.67443632173402
 30
0.0
 11
-15.85
 21
-2.02443632173402
 31
0.0
  0
LINE
  5
323
330
1F
100
AcDbEntity
  8
1
  6
Continuous
 62
     3
100
AcDbLine
 10
-15.85
 20
-2.02443632173402
 30
0.0
 11
-15.4
 21
-2.22443632173401
 31
0.0
  0
LINE
  5
324
330
1F
100
AcDbEntity
  8
1
  6
Continuous
 62
     3
100
AcDbLine
 10
-15.4
 20
-2.22443632173401
 30
0.0
 11
-15.2125
 21
-2.32443632173401
 31
0.0
  0
LINE
  5
325
330
1F
100
AcDbEntity
  8
1
  6
Continuous
 62
     3
100
AcDbLine
 10
-15.2125
 20
-2.32443632173401
 30
0.0
 11
-15.1
 21
-2.42443632173402
 31
0.0
  0
LINE
  5
326
330
1F
100
AcDbEntity
  8
1
  6
Continuous
 62
     3
100
AcDbLine
 10
-15.1
 20
-2.42443632173402
 30
0.0
 11
-15.025
 21
-2.57443632173401
 31
0.0
  0
LINE
  5
327
330
1F
100
AcDbEntity
  8
1
  6
Continuous
 62
     3
100
AcDbLine
 10
-15.025
 20
-2.57443632173401
 30
0.0
 11
-14.9875
 21
-2.82443632173401
 31
0.0
  0
LINE
  5
328
330
1F
100
AcDbEntity
  8
1
  6
Continuous
 62
     3
100
AcDbLine
 10
-14.9875
 20
-2.82443632173401
 30
0.0
 11
-15.025
 21
-3.12443632173402
 31
0.0
  0
LINE
  5
329
330
1F
100
AcDbEntity
  8
1
  6
Continuous
 62
     3
100
AcDbLine
 10
-15.025
 20
-3.12443632173402
 30
0.0
 11
-15.1
 21
-3.37443632173402
 31
0.0
  0
LINE
  5
32A
330
1F
100
AcDbEntity
  8
1
  6
Continuous
 62
     3
100
AcDbLine
 10
-15.1
 20
-3.37443632173402
 30
0.0
 11
-15.2125
 21
-3.57443632173401
 31
0.0
  0
LINE
  5
32B
330
1F
100
AcDbEntity
  8
1
  6
Continuous
 62
     3
100
AcDbLine
 10
-15.2125
 20
-3.57443632173401
 30
0.0
 11
-15.4
 21
-3.77443632173402
 31
0.0
  0
LINE
  5
32C
330
1F
100
AcDbEntity
  8
1
  6
Continuous
 62
     3
100
AcDbLine
 10
-15.4
 20
-3.77443632173402
 30
0.0
 11
-15.6625
 21
-3.92443632173402
 31
0.0
  0
LINE
  5
32D
330
1F
100
AcDbEntity
  8
1
  6
Continuous
 62
     3
100
AcDbLine
 10
-15.6625
 20
-3.92443632173402
 30
0.0
 11
-15.9625
 21
-4.02443632173402
 31
0.0
  0
LINE
  5
32E
330
1F
100
AcDbEntity
  8
1
  6
Continuous
 62
     3
100
AcDbLine
 10
-15.9625
 20
-4.02443632173402
 30
0.0
 11
-16.225
 21
-4.02443632173402
 31
0.0
  0
LINE
  5
32F
330
1F
100
AcDbEntity
  8
1
  6
Continuous
 62
     3
100
AcDbLine
 10
-16.225
 20
-4.02443632173402
 30
0.0
 11
-16.3
 21
-4.02443632173402
 31
0.0
  0
LINE
  5
330
330
1F
100
AcDbEntity
  8
1
  6
Continuous
 62
     3
100
AcDbLine
 10
-16.3
 20
-4.02443632173402
 30
0.0
 11
-16.4875
 21
-3.97443632173401
 31
0.0
  0
LINE
  5
331
330
1F
100
AcDbEntity
  8
1
  6
Continuous
 62
     3
100
AcDbLine
 10
-16.4875
 20
-3.97443632173401
 30
0.0
 11
-16.7875
 21
-3.87443632173402
 31
0.0
  0
LINE
  5
332
330
1F
100
AcDbEntity
  8
1
  6
Continuous
 62
     3
100
AcDbLine
 10
-16.7875
 20
-3.87443632173402
 30
0.0
 11
-16.975
 21
-3.77443632173402
 31
0.0
  0
LINE
  5
333
330
1F
100
AcDbEntity
  8
1
  6
Continuous
 62
     3
100
AcDbLine
 10
-16.975
 20
-3.77443632173402
 30
0.0
 11
-17.1625
 21
-3.57443632173401
 31
0.0
  0
LINE
  5
334
330
1F
100
AcDbEntity
  8
1
  6
Continuous
 62
     3
100
AcDbLine
 10
-17.1625
 20
-3.57443632173401
 30
0.0
 11
-17.35
 21
-3.22443632173401
 31
0.0
  0
LINE
  5
335
330
1F
100
AcDbEntity
  8
1
  6
Continuous
 62
     3
100
AcDbLine
 10
-17.35
 20
-3.22443632173401
 30
0.0
 11
-17.4625
 21
-2.87443632173402
 31
0.0
  0
LINE
  5
336
330
1F
100
AcDbEntity
  8
1
  6
Continuous
 62
     3
100
AcDbLine
 10
-17.4625
 20
-2.87443632173402
 30
0.0
 11
-17.5
 21
-2.52443632173402
 31
0.0
  0
LINE
  5
337
330
1F
100
AcDbEntity
  8
1
  6
Continuous
 62
     3
100
AcDbLine
 10
-17.5
 20
-2.52443632173402
 30
0.0
 11
-17.125
 21
-2.52443632173402
 31
0.0
  0
LINE
  5
338
330
1F
100
AcDbEntity
  8
1
  6
Continuous
 62
     3
100
AcDbLine
 10
-11.65
 20
-1.32443632173401
 30
0.0
 11
-11.7625
 21
-0.92443632173402
 31
0.0
  0
LINE
  5
339
330
1F
100
AcDbEntity
  8
1
  6
Continuous
 62
     3
100
AcDbLine
 10
-11.7625
 20
-0.92443632173402
 30
0.0
 11
-11.95
 21
-0.52443632173402
 31
0.0
  0
LINE
  5
33A
330
1F
100
AcDbEntity
  8
1
  6
Continuous
 62
     3
100
AcDbLine
 10
-11.95
 20
-0.52443632173402
 30
0.0
 11
-12.1375
 21
-0.32443632173401
 31
0.0
  0
LINE
  5
33B
330
1F
100
AcDbEntity
  8
1
  6
Continuous
 62
     3
100
AcDbLine
 10
-12.1375
 20
-0.32443632173401
 30
0.0
 11
-12.3625
 21
-0.17443632173401
 31
0.0
  0
LINE
  5
33C
330
1F
100
AcDbEntity
  8
1
  6
Continuous
 62
     3
100
AcDbLine
 10
-12.3625
 20
-0.17443632173401
 30
0.0
 11
-12.625
 21
-0.07443632173401
 31
0.0
  0
LINE
  5
33D
330
1F
100
AcDbEntity
  8
1
  6
Continuous
 62
     3
100
AcDbLine
 10
-12.625
 20
-0.07443632173401
 30
0.0
 11
-12.85
 21
-0.02443632173402
 31
0.0
  0
LINE
  5
33E
330
1F
100
AcDbEntity
  8
1
  6
Continuous
 62
     3
100
AcDbLine
 10
-12.85
 20
-0.02443632173402
 30
0.0
 11
-13.075
 21
-0.02443632173402
 31
0.0
  0
LINE
  5
33F
330
1F
100
AcDbEntity
  8
1
  6
Continuous
 62
     3
100
AcDbLine
 10
-13.075
 20
-0.02443632173402
 30
0.0
 11
-13.3
 21
-0.07443632173401
 31
0.0
  0
LINE
  5
340
330
1F
100
AcDbEntity
  8
1
  6
Continuous
 62
     3
100
AcDbLine
 10
-13.3
 20
-0.07443632173401
 30
0.0
 11
-13.5625
 21
-0.17443632173401
 31
0.0
  0
LINE
  5
341
330
1F
100
AcDbEntity
  8
1
  6
Continuous
 62
     3
100
AcDbLine
 10
-13.5625
 20
-0.17443632173401
 30
0.0
 11
-13.7125
 21
-0.27443632173402
 31
0.0
  0
LINE
  5
342
330
1F
100
AcDbEntity
  8
1
  6
Continuous
 62
     3
100
AcDbLine
 10
-13.7125
 20
-0.27443632173402
 30
0.0
 11
-13.9375
 21
-0.52443632173402
 31
0.0
  0
LINE
  5
343
330
1F
100
AcDbEntity
  8
1
  6
Continuous
 62
     3
100
AcDbLine
 10
-13.9375
 20
-0.52443632173402
 30
0.0
 11
-14.0875
 21
-0.77443632173402
 31
0.0
  0
LINE
  5
344
330
1F
100
AcDbEntity
  8
1
  6
Continuous
 62
     3
100
AcDbLine
 10
-14.0875
 20
-0.77443632173402
 30
0.0
 11
-14.2375
 21
-1.07443632173401
 31
0.0
  0
LINE
  5
345
330
1F
100
AcDbEntity
  8
1
  6
Continuous
 62
     3
100
AcDbLine
 10
-14.2375
 20
-1.07443632173401
 30
0.0
 11
-14.35
 21
-1.52443632173402
 31
0.0
  0
LINE
  5
346
330
1F
100
AcDbEntity
  8
1
  6
Continuous
 62
     3
100
AcDbLine
 10
-14.35
 20
-1.52443632173402
 30
0.0
 11
-14.3875
 21
-1.87443632173401
 31
0.0
  0
LINE
  5
347
330
1F
100
AcDbEntity
  8
1
  6
Continuous
 62
     3
100
AcDbLine
 10
-14.3875
 20
-1.87443632173401
 30
0.0
 11
-14.3875
 21
-2.17443632173402
 31
0.0
  0
LINE
  5
348
330
1F
100
AcDbEntity
  8
1
  6
Continuous
 62
     3
100
AcDbLine
 10
-14.3875
 20
-2.17443632173402
 30
0.0
 11
-14.35
 21
-2.52443632173402
 31
0.0
  0
LINE
  5
349
330
1F
100
AcDbEntity
  8
1
  6
Continuous
 62
     3
100
AcDbLine
 10
-14.35
 20
-2.52443632173402
 30
0.0
 11
-14.2375
 21
-2.97443632173401
 31
0.0
  0
LINE
  5
34A
330
1F
100
AcDbEntity
  8
1
  6
Continuous
 62
     3
100
AcDbLine
 10
-14.2375
 20
-2.97443632173401
 30
0.0
 11
-14.0875
 21
-3.27443632173402
 31
0.0
  0
LINE
  5
34B
330
1F
100
AcDbEntity
  8
1
  6
Continuous
 62
     3
100
AcDbLine
 10
-14.0875
 20
-3.27443632173402
 30
0.0
 11
-13.9375
 21
-3.52443632173402
 31
0.0
  0
LINE
  5
34C
330
1F
100
AcDbEntity
  8
1
  6
Continuous
 62
     3
100
AcDbLine
 10
-13.9375
 20
-3.52443632173402
 30
0.0
 11
-13.7125
 21
-3.77443632173402
 31
0.0
  0
LINE
  5
34D
330
1F
100
AcDbEntity
  8
1
  6
Continuous
 62
     3
100
AcDbLine
 10
-13.7125
 20
-3.77443632173402
 30
0.0
 11
-13.5625
 21
-3.87443632173402
 31
0.0
  0
LINE
  5
34E
330
1F
100
AcDbEntity
  8
1
  6
Continuous
 62
     3
100
AcDbLine
 10
-13.5625
 20
-3.87443632173402
 30
0.0
 11
-13.3
 21
-3.97443632173401
 31
0.0
  0
LINE
  5
34F
330
1F
100
AcDbEntity
  8
1
  6
Continuous
 62
     3
100
AcDbLine
 10
-13.3
 20
-3.97443632173401
 30
0.0
 11
-13.075
 21
-4.02443632173402
 31
0.0
  0
LINE
  5
350
330
1F
100
AcDbEntity
  8
1
  6
Continuous
 62
     3
100
AcDbLine
 10
-13.075
 20
-4.02443632173402
 30
0.0
 11
-12.85
 21
-4.02443632173402
 31
0.0
  0
LINE
  5
351
330
1F
100
AcDbEntity
  8
1
  6
Continuous
 62
     3
100
AcDbLine
 10
-12.85
 20
-4.02443632173402
 30
0.0
 11
-12.625
 21
-3.97443632173401
 31
0.0
  0
LINE
  5
352
330
1F
100
AcDbEntity
  8
1
  6
Continuous
 62
     3
100
AcDbLine
 10
-12.625
 20
-3.97443632173401
 30
0.0
 11
-12.3625
 21
-3.87443632173402
 31
0.0
  0
LINE
  5
353
330
1F
100
AcDbEntity
  8
1
  6
Continuous
 62
     3
100
AcDbLine
 10
-12.3625
 20
-3.87443632173402
 30
0.0
 11
-12.2125
 21
-3.77443632173402
 31
0.0
  0
LINE
  5
354
330
1F
100
AcDbEntity
  8
1
  6
Continuous
 62
     3
100
AcDbLine
 10
-12.2125
 20
-3.77443632173402
 30
0.0
 11
-11.9875
 21
-3.52443632173402
 31
0.0
  0
LINE
  5
355
330
1F
100
AcDbEntity
  8
1
  6
Continuous
 62
     3
100
AcDbLine
 10
-11.9875
 20
-3.52443632173402
 30
0.0
 11
-11.8
 21
-3.22443632173401
 31
0.0
  0
LINE
  5
356
330
1F
100
AcDbEntity
  8
1
  6
Continuous
 62
     3
100
AcDbLine
 10
-11.8
 20
-3.22443632173401
 30
0.0
 11
-11.6875
 21
-2.92443632173402
 31
0.0
  0
LINE
  5
357
330
1F
100
AcDbEntity
  8
1
  6
Continuous
 62
     3
100
AcDbLine
 10
-11.6875
 20
-2.92443632173402
 30
0.0
 11
-11.575
 21
-2.42443632173402
 31
0.0
  0
LINE
  5
358
330
1F
100
AcDbEntity
  8
1
  6
Continuous
 62
     3
100
AcDbLine
 10
-11.575
 20
-2.42443632173402
 30
0.0
 11
-11.9875
 21
-2.42443632173402
 31
0.0
  0
LINE
  5
359
330
1F
100
AcDbEntity
  8
1
  6
Continuous
 62
     3
100
AcDbLine
 10
-11.9875
 20
-2.42443632173402
 30
0.0
 11
-12.0625
 21
-2.82443632173401
 31
0.0
  0
LINE
  5
35A
330
1F
100
AcDbEntity
  8
1
  6
Continuous
 62
     3
100
AcDbLine
 10
-12.0625
 20
-2.82443632173401
 30
0.0
 11
-12.175
 21
-3.07443632173401
 31
0.0
  0
LINE
  5
35B
330
1F
100
AcDbEntity
  8
1
  6
Continuous
 62
     3
100
AcDbLine
 10
-12.175
 20
-3.07443632173401
 30
0.0
 11
-12.2875
 21
-3.22443632173401
 31
0.0
  0
LINE
  5
35C
330
1F
100
AcDbEntity
  8
1
  6
Continuous
 62
     3
100
AcDbLine
 10
-12.2875
 20
-3.22443632173401
 30
0.0
 11
-12.4
 21
-3.32443632173401
 31
0.0
  0
LINE
  5
35D
330
1F
100
AcDbEntity
  8
1
  6
Continuous
 62
     3
100
AcDbLine
 10
-12.4
 20
-3.32443632173401
 30
0.0
 11
-12.625
 21
-3.42443632173402
 31
0.0
  0
LINE
  5
35E
330
1F
100
AcDbEntity
  8
1
  6
Continuous
 62
     3
100
AcDbLine
 10
-12.625
 20
-3.42443632173402
 30
0.0
 11
-12.85
 21
-3.47443632173401
 31
0.0
  0
LINE
  5
35F
330
1F
100
AcDbEntity
  8
1
  6
Continuous
 62
     3
100
AcDbLine
 10
-12.85
 20
-3.47443632173401
 30
0.0
 11
-13.075
 21
-3.47443632173401
 31
0.0
  0
LINE
  5
360
330
1F
100
AcDbEntity
  8
1
  6
Continuous
 62
     3
100
AcDbLine
 10
-13.075
 20
-3.47443632173401
 30
0.0
 11
-13.3
 21
-3.42443632173402
 31
0.0
  0
LINE
  5
361
330
1F
100
AcDbEntity
  8
1
  6
Continuous
 62
     3
100
AcDbLine
 10
-13.3
 20
-3.42443632173402
 30
0.0
 11
-13.525
 21
-3.32443632173401
 31
0.0
  0
LINE
  5
362
330
1F
100
AcDbEntity
  8
1
  6
Continuous
 62
     3
100
AcDbLine
 10
-13.525
 20
-3.32443632173401
 30
0.0
 11
-13.6375
 21
-3.22443632173401
 31
0.0
  0
LINE
  5
363
330
1F
100
AcDbEntity
  8
1
  6
Continuous
 62
     3
100
AcDbLine
 10
-13.6375
 20
-3.22443632173401
 30
0.0
 11
-13.75
 21
-3.07443632173401
 31
0.0
  0
LINE
  5
364
330
1F
100
AcDbEntity
  8
1
  6
Continuous
 62
     3
100
AcDbLine
 10
-13.75
 20
-3.07443632173401
 30
0.0
 11
-13.8625
 21
-2.82443632173401
 31
0.0
  0
LINE
  5
365
330
1F
100
AcDbEntity
  8
1
  6
Continuous
 62
     3
100
AcDbLine
 10
-13.8625
 20
-2.82443632173401
 30
0.0
 11
-13.9375
 21
-2.52443632173402
 31
0.0
  0
LINE
  5
366
330
1F
100
AcDbEntity
  8
1
  6
Continuous
 62
     3
100
AcDbLine
 10
-13.9375
 20
-2.52443632173402
 30
0.0
 11
-13.975
 21
-2.17443632173402
 31
0.0
  0
LINE
  5
367
330
1F
100
AcDbEntity
  8
1
  6
Continuous
 62
     3
100
AcDbLine
 10
-13.975
 20
-2.17443632173402
 30
0.0
 11
-13.975
 21
-1.87443632173401
 31
0.0
  0
LINE
  5
368
330
1F
100
AcDbEntity
  8
1
  6
Continuous
 62
     3
100
AcDbLine
 10
-13.975
 20
-1.87443632173401
 30
0.0
 11
-13.9375
 21
-1.52443632173402
 31
0.0
  0
LINE
  5
369
330
1F
100
AcDbEntity
  8
1
  6
Continuous
 62
     3
100
AcDbLine
 10
-13.9375
 20
-1.52443632173402
 30
0.0
 11
-13.8625
 21
-1.22443632173402
 31
0.0
  0
LINE
  5
36A
330
1F
100
AcDbEntity
  8
1
  6
Continuous
 62
     3
100
AcDbLine
 10
-13.8625
 20
-1.22443632173402
 30
0.0
 11
-13.75
 21
-0.97443632173402
 31
0.0
  0
LINE
  5
36B
330
1F
100
AcDbEntity
  8
1
  6
Continuous
 62
     3
100
AcDbLine
 10
-13.75
 20
-0.97443632173402
 30
0.0
 11
-13.6375
 21
-0.82443632173401
 31
0.0
  0
LINE
  5
36C
330
1F
100
AcDbEntity
  8
1
  6
Continuous
 62
     3
100
AcDbLine
 10
-13.6375
 20
-0.82443632173401
 30
0.0
 11
-13.525
 21
-0.72443632173402
 31
0.0
  0
LINE
  5
36D
330
1F
100
AcDbEntity
  8
1
  6
Continuous
 62
     3
100
AcDbLine
 10
-13.525
 20
-0.72443632173402
 30
0.0
 11
-13.3
 21
-0.62443632173402
 31
0.0
  0
LINE
  5
36E
330
1F
100
AcDbEntity
  8
1
  6
Continuous
 62
     3
100
AcDbLine
 10
-13.3
 20
-0.62443632173402
 30
0.0
 11
-13.075
 21
-0.57443632173401
 31
0.0
  0
LINE
  5
36F
330
1F
100
AcDbEntity
  8
1
  6
Continuous
 62
     3
100
AcDbLine
 10
-13.075
 20
-0.57443632173401
 30
0.0
 11
-12.85
 21
-0.57443632173401
 31
0.0
  0
LINE
  5
370
330
1F
100
AcDbEntity
  8
1
  6
Continuous
 62
     3
100
AcDbLine
 10
-12.85
 20
-0.57443632173401
 30
0.0
 11
-12.625
 21
-0.62443632173402
 31
0.0
  0
LINE
  5
371
330
1F
100
AcDbEntity
  8
1
  6
Continuous
 62
     3
100
AcDbLine
 10
-12.625
 20
-0.62443632173402
 30
0.0
 11
-12.4
 21
-0.72443632173402
 31
0.0
  0
LINE
  5
372
330
1F
100
AcDbEntity
  8
1
  6
Continuous
 62
     3
100
AcDbLine
 10
-12.4
 20
-0.72443632173402
 30
0.0
 11
-12.25
 21
-0.87443632173402
 31
0.0
  0
LINE
  5
373
330
1F
100
AcDbEntity
  8
1
  6
Continuous
 62
     3
100
AcDbLine
 10
-12.25
 20
-0.87443632173402
 30
0.0
 11
-12.1375
 21
-1.07443632173401
 31
0.0
  0
LINE
  5
374
330
1F
100
AcDbEntity
  8
1
  6
Continuous
 62
     3
100
AcDbLine
 10
-12.1375
 20
-1.07443632173401
 30
0.0
 11
-12.025
 21
-1.42443632173402
 31
0.0
  0
LINE
  5
375
330
1F
100
AcDbEntity
  8
1
  6
Continuous
 62
     3
100
AcDbLine
 10
-12.025
 20
-1.42443632173402
 30
0.0
 11
-11.65
 21
-1.32443632173401
 31
0.0
  0
LINE
  5
376
330
1F
100
AcDbEntity
  8
1
  6
Continuous
 62
     3
100
AcDbLine
 10
-10.6
 20
-2.52443632173402
 30
0.0
 11
-10.5625
 21
-2.87443632173402
 31
0.0
  0
LINE
  5
377
330
1F
100
AcDbEntity
  8
1
  6
Continuous
 62
     3
100
AcDbLine
 10
-10.5625
 20
-2.87443632173402
 30
0.0
 11
-10.4875
 21
-3.12443632173402
 31
0.0
  0
LINE
  5
378
330
1F
100
AcDbEntity
  8
1
  6
Continuous
 62
     3
100
AcDbLine
 10
-10.4875
 20
-3.12443632173402
 30
0.0
 11
-10.3375
 21
-3.32443632173401
 31
0.0
  0
LINE
  5
379
330
1F
100
AcDbEntity
  8
1
  6
Continuous
 62
     3
100
AcDbLine
 10
-10.3375
 20
-3.32443632173401
 30
0.0
 11
-10.1875
 21
-3.42443632173402
 31
0.0
  0
LINE
  5
37A
330
1F
100
AcDbEntity
  8
1
  6
Continuous
 62
     3
100
AcDbLine
 10
-10.1875
 20
-3.42443632173402
 30
0.0
 11
-10.0375
 21
-3.47443632173401
 31
0.0
  0
LINE
  5
37B
330
1F
100
AcDbEntity
  8
1
  6
Continuous
 62
     3
100
AcDbLine
 10
-10.0375
 20
-3.47443632173401
 30
0.0
 11
-9.8125
 21
-3.52443632173402
 31
0.0
  0
LINE
  5
37C
330
1F
100
AcDbEntity
  8
1
  6
Continuous
 62
     3
100
AcDbLine
 10
-9.8125
 20
-3.52443632173402
 30
0.0
 11
-9.625
 21
-3.52443632173402
 31
0.0
  0
LINE
  5
37D
330
1F
100
AcDbEntity
  8
1
  6
Continuous
 62
     3
100
AcDbLine
 10
-9.625
 20
-3.52443632173402
 30
0.0
 11
-9.325
 21
-3.47443632173401
 31
0.0
  0
LINE
  5
37E
330
1F
100
AcDbEntity
  8
1
  6
Continuous
 62
     3
100
AcDbLine
 10
-9.325
 20
-3.47443632173401
 30
0.0
 11
-9.1
 21
-3.37443632173402
 31
0.0
  0
LINE
  5
37F
330
1F
100
AcDbEntity
  8
1
  6
Continuous
 62
     3
100
AcDbLine
 10
-9.1
 20
-3.37443632173402
 30
0.0
 11
-8.95
 21
-3.27443632173402
 31
0.0
  0
LINE
  5
380
330
1F
100
AcDbEntity
  8
1
  6
Continuous
 62
     3
100
AcDbLine
 10
-8.95
 20
-3.27443632173402
 30
0.0
 11
-8.8375
 21
-3.07443632173401
 31
0.0
  0
LINE
  5
381
330
1F
100
AcDbEntity
  8
1
  6
Continuous
 62
     3
100
AcDbLine
 10
-8.8375
 20
-3.07443632173401
 30
0.0
 11
-8.8
 21
-2.92443632173402
 31
0.0
  0
LINE
  5
382
330
1F
100
AcDbEntity
  8
1
  6
Continuous
 62
     3
100
AcDbLine
 10
-8.8
 20
-2.92443632173402
 30
0.0
 11
-8.8375
 21
-2.72443632173401
 31
0.0
  0
LINE
  5
383
330
1F
100
AcDbEntity
  8
1
  6
Continuous
 62
     3
100
AcDbLine
 10
-8.8375
 20
-2.72443632173401
 30
0.0
 11
-8.9125
 21
-2.62443632173402
 31
0.0
  0
LINE
  5
384
330
1F
100
AcDbEntity
  8
1
  6
Continuous
 62
     3
100
AcDbLine
 10
-8.9125
 20
-2.62443632173402
 30
0.0
 11
-9.1
 21
-2.52443632173402
 31
0.0
  0
LINE
  5
385
330
1F
100
AcDbEntity
  8
1
  6
Continuous
 62
     3
100
AcDbLine
 10
-9.1
 20
-2.52443632173402
 30
0.0
 11
-9.6625
 21
-2.32443632173401
 31
0.0
  0
LINE
  5
386
330
1F
100
AcDbEntity
  8
1
  6
Continuous
 62
     3
100
AcDbLine
 10
-9.6625
 20
-2.32443632173401
 30
0.0
 11
-10.075
 21
-2.17443632173402
 31
0.0
  0
LINE
  5
387
330
1F
100
AcDbEntity
  8
1
  6
Continuous
 62
     3
100
AcDbLine
 10
-10.075
 20
-2.17443632173402
 30
0.0
 11
-10.45
 21
-1.97443632173402
 31
0.0
  0
LINE
  5
388
330
1F
100
AcDbEntity
  8
1
  6
Continuous
 62
     3
100
AcDbLine
 10
-10.45
 20
-1.97443632173402
 30
0.0
 11
-10.7875
 21
-1.67443632173402
 31
0.0
  0
LINE
  5
389
330
1F
100
AcDbEntity
  8
1
  6
Continuous
 62
     3
100
AcDbLine
 10
-10.7875
 20
-1.67443632173402
 30
0.0
 11
-10.9
 21
-1.42443632173402
 31
0.0
  0
LINE
  5
38A
330
1F
100
AcDbEntity
  8
1
  6
Continuous
 62
     3
100
AcDbLine
 10
-10.9
 20
-1.42443632173402
 30
0.0
 11
-10.9375
 21
-1.17443632173402
 31
0.0
  0
LINE
  5
38B
330
1F
100
AcDbEntity
  8
1
  6
Continuous
 62
     3
100
AcDbLine
 10
-10.9375
 20
-1.17443632173402
 30
0.0
 11
-10.9375
 21
-1.07443632173401
 31
0.0
  0
LINE
  5
38C
330
1F
100
AcDbEntity
  8
1
  6
Continuous
 62
     3
100
AcDbLine
 10
-10.9375
 20
-1.07443632173401
 30
0.0
 11
-10.9
 21
-0.92443632173402
 31
0.0
  0
LINE
  5
38D
330
1F
100
AcDbEntity
  8
1
  6
Continuous
 62
     3
100
AcDbLine
 10
-10.9
 20
-0.92443632173402
 30
0.0
 11
-10.825
 21
-0.77443632173402
 31
0.0
  0
LINE
  5
38E
330
1F
100
AcDbEntity
  8
1
  6
Continuous
 62
     3
100
AcDbLine
 10
-10.825
 20
-0.77443632173402
 30
0.0
 11
-10.675
 21
-0.52443632173402
 31
0.0
  0
LINE
  5
38F
330
1F
100
AcDbEntity
  8
1
  6
Continuous
 62
     3
100
AcDbLine
 10
-10.675
 20
-0.52443632173402
 30
0.0
 11
-10.45
 21
-0.27443632173402
 31
0.0
  0
LINE
  5
390
330
1F
100
AcDbEntity
  8
1
  6
Continuous
 62
     3
100
AcDbLine
 10
-10.45
 20
-0.27443632173402
 30
0.0
 11
-10.3
 21
-0.17443632173401
 31
0.0
  0
LINE
  5
391
330
1F
100
AcDbEntity
  8
1
  6
Continuous
 62
     3
100
AcDbLine
 10
-10.3
 20
-0.17443632173401
 30
0.0
 11
-10.075
 21
-0.07443632173401
 31
0.0
  0
LINE
  5
392
330
1F
100
AcDbEntity
  8
1
  6
Continuous
 62
     3
100
AcDbLine
 10
-10.075
 20
-0.07443632173401
 30
0.0
 11
-9.85
 21
-0.02443632173402
 31
0.0
  0
LINE
  5
393
330
1F
100
AcDbEntity
  8
1
  6
Continuous
 62
     3
100
AcDbLine
 10
-9.85
 20
-0.02443632173402
 30
0.0
 11
-9.625
 21
-0.02443632173402
 31
0.0
  0
LINE
  5
394
330
1F
100
AcDbEntity
  8
1
  6
Continuous
 62
     3
100
AcDbLine
 10
-9.625
 20
-0.02443632173402
 30
0.0
 11
-9.4
 21
-0.07443632173401
 31
0.0
  0
LINE
  5
395
330
1F
100
AcDbEntity
  8
1
  6
Continuous
 62
     3
100
AcDbLine
 10
-9.4
 20
-0.07443632173401
 30
0.0
 11
-9.1375
 21
-0.17443632173401
 31
0.0
  0
LINE
  5
396
330
1F
100
AcDbEntity
  8
1
  6
Continuous
 62
     3
100
AcDbLine
 10
-9.1375
 20
-0.17443632173401
 30
0.0
 11
-8.95
 21
-0.27443632173402
 31
0.0
  0
LINE
  5
397
330
1F
100
AcDbEntity
  8
1
  6
Continuous
 62
     3
100
AcDbLine
 10
-8.95
 20
-0.27443632173402
 30
0.0
 11
-8.725
 21
-0.52443632173402
 31
0.0
  0
LINE
  5
398
330
1F
100
AcDbEntity
  8
1
  6
Continuous
 62
     3
100
AcDbLine
 10
-8.725
 20
-0.52443632173402
 30
0.0
 11
-8.6125
 21
-0.77443632173402
 31
0.0
  0
LINE
  5
399
330
1F
100
AcDbEntity
  8
1
  6
Continuous
 62
     3
100
AcDbLine
 10
-8.6125
 20
-0.77443632173402
 30
0.0
 11
-8.5375
 21
-1.12443632173401
 31
0.0
  0
LINE
  5
39A
330
1F
100
AcDbEntity
  8
1
  6
Continuous
 62
     3
100
AcDbLine
 10
-8.5375
 20
-1.12443632173401
 30
0.0
 11
-8.9125
 21
-1.12443632173401
 31
0.0
  0
LINE
  5
39B
330
1F
100
AcDbEntity
  8
1
  6
Continuous
 62
     3
100
AcDbLine
 10
-8.9125
 20
-1.12443632173401
 30
0.0
 11
-8.9875
 21
-0.87443632173402
 31
0.0
  0
LINE
  5
39C
330
1F
100
AcDbEntity
  8
1
  6
Continuous
 62
     3
100
AcDbLine
 10
-8.9875
 20
-0.87443632173402
 30
0.0
 11
-9.175
 21
-0.67443632173402
 31
0.0
  0
LINE
  5
39D
330
1F
100
AcDbEntity
  8
1
  6
Continuous
 62
     3
100
AcDbLine
 10
-9.175
 20
-0.67443632173402
 30
0.0
 11
-9.4
 21
-0.57443632173401
 31
0.0
  0
LINE
  5
39E
330
1F
100
AcDbEntity
  8
1
  6
Continuous
 62
     3
100
AcDbLine
 10
-9.4
 20
-0.57443632173401
 30
0.0
 11
-9.625
 21
-0.52443632173402
 31
0.0
  0
LINE
  5
39F
330
1F
100
AcDbEntity
  8
1
  6
Continuous
 62
     3
100
AcDbLine
 10
-9.625
 20
-0.52443632173402
 30
0.0
 11
-9.8125
 21
-0.52443632173402
 31
0.0
  0
LINE
  5
3A0
330
1F
100
AcDbEntity
  8
1
  6
Continuous
 62
     3
100
AcDbLine
 10
-9.8125
 20
-0.52443632173402
 30
0.0
 11
-10.0375
 21
-0.57443632173401
 31
0.0
  0
LINE
  5
3A1
330
1F
100
AcDbEntity
  8
1
  6
Continuous
 62
     3
100
AcDbLine
 10
-10.0375
 20
-0.57443632173401
 30
0.0
 11
-10.2625
 21
-0.67443632173402
 31
0.0
  0
LINE
  5
3A2
330
1F
100
AcDbEntity
  8
1
  6
Continuous
 62
     3
100
AcDbLine
 10
-10.2625
 20
-0.67443632173402
 30
0.0
 11
-10.375
 21
-0.77443632173402
 31
0.0
  0
LINE
  5
3A3
330
1F
100
AcDbEntity
  8
1
  6
Continuous
 62
     3
100
AcDbLine
 10
-10.375
 20
-0.77443632173402
 30
0.0
 11
-10.525
 21
-0.97443632173402
 31
0.0
  0
LINE
  5
3A4
330
1F
100
AcDbEntity
  8
1
  6
Continuous
 62
     3
100
AcDbLine
 10
-10.525
 20
-0.97443632173402
 30
0.0
 11
-10.5625
 21
-1.17443632173402
 31
0.0
  0
LINE
  5
3A5
330
1F
100
AcDbEntity
  8
1
  6
Continuous
 62
     3
100
AcDbLine
 10
-10.5625
 20
-1.17443632173402
 30
0.0
 11
-10.5625
 21
-1.27443632173402
 31
0.0
  0
LINE
  5
3A6
330
1F
100
AcDbEntity
  8
1
  6
Continuous
 62
     3
100
AcDbLine
 10
-10.5625
 20
-1.27443632173402
 30
0.0
 11
-10.4875
 21
-1.47443632173402
 31
0.0
  0
LINE
  5
3A7
330
1F
100
AcDbEntity
  8
1
  6
Continuous
 62
     3
100
AcDbLine
 10
-10.4875
 20
-1.47443632173402
 30
0.0
 11
-10.225
 21
-1.67443632173402
 31
0.0
  0
LINE
  5
3A8
330
1F
100
AcDbEntity
  8
1
  6
Continuous
 62
     3
100
AcDbLine
 10
-10.225
 20
-1.67443632173402
 30
0.0
 11
-9.325
 21
-2.02443632173402
 31
0.0
  0
LINE
  5
3A9
330
1F
100
AcDbEntity
  8
1
  6
Continuous
 62
     3
100
AcDbLine
 10
-9.325
 20
-2.02443632173402
 30
0.0
 11
-8.875
 21
-2.22443632173401
 31
0.0
  0
LINE
  5
3AA
330
1F
100
AcDbEntity
  8
1
  6
Continuous
 62
     3
100
AcDbLine
 10
-8.875
 20
-2.22443632173401
 30
0.0
 11
-8.6875
 21
-2.32443632173401
 31
0.0
  0
LINE
  5
3AB
330
1F
100
AcDbEntity
  8
1
  6
Continuous
 62
     3
100
AcDbLine
 10
-8.6875
 20
-2.32443632173401
 30
0.0
 11
-8.575
 21
-2.42443632173402
 31
0.0
  0
LINE
  5
3AC
330
1F
100
AcDbEntity
  8
1
  6
Continuous
 62
     3
100
AcDbLine
 10
-8.575
 20
-2.42443632173402
 30
0.0
 11
-8.5
 21
-2.57443632173401
 31
0.0
  0
LINE
  5
3AD
330
1F
100
AcDbEntity
  8
1
  6
Continuous
 62
     3
100
AcDbLine
 10
-8.5
 20
-2.57443632173401
 30
0.0
 11
-8.4625
 21
-2.82443632173401
 31
0.0
  0
LINE
  5
3AE
330
1F
100
AcDbEntity
  8
1
  6
Continuous
 62
     3
100
AcDbLine
 10
-8.4625
 20
-2.82443632173401
 30
0.0
 11
-8.5
 21
-3.12443632173402
 31
0.0
  0
LINE
  5
3AF
330
1F
100
AcDbEntity
  8
1
  6
Continuous
 62
     3
100
AcDbLine
 10
-8.5
 20
-3.12443632173402
 30
0.0
 11
-8.575
 21
-3.37443632173402
 31
0.0
  0
LINE
  5
3B0
330
1F
100
AcDbEntity
  8
1
  6
Continuous
 62
     3
100
AcDbLine
 10
-8.575
 20
-3.37443632173402
 30
0.0
 11
-8.6875
 21
-3.57443632173401
 31
0.0
  0
LINE
  5
3B1
330
1F
100
AcDbEntity
  8
1
  6
Continuous
 62
     3
100
AcDbLine
 10
-8.6875
 20
-3.57443632173401
 30
0.0
 11
-8.875
 21
-3.77443632173402
 31
0.0
  0
LINE
  5
3B2
330
1F
100
AcDbEntity
  8
1
  6
Continuous
 62
     3
100
AcDbLine
 10
-8.875
 20
-3.77443632173402
 30
0.0
 11
-9.1375
 21
-3.92443632173402
 31
0.0
  0
LINE
  5
3B3
330
1F
100
AcDbEntity
  8
1
  6
Continuous
 62
     3
100
AcDbLine
 10
-9.1375
 20
-3.92443632173402
 30
0.0
 11
-9.4375
 21
-4.02443632173402
 31
0.0
  0
LINE
  5
3B4
330
1F
100
AcDbEntity
  8
1
  6
Continuous
 62
     3
100
AcDbLine
 10
-9.4375
 20
-4.02443632173402
 30
0.0
 11
-9.7
 21
-4.02443632173402
 31
0.0
  0
LINE
  5
3B5
330
1F
100
AcDbEntity
  8
1
  6
Continuous
 62
     3
100
AcDbLine
 10
-9.7
 20
-4.02443632173402
 30
0.0
 11
-9.775
 21
-4.02443632173402
 31
0.0
  0
LINE
  5
3B6
330
1F
100
AcDbEntity
  8
1
  6
Continuous
 62
     3
100
AcDbLine
 10
-9.775
 20
-4.02443632173402
 30
0.0
 11
-9.9625
 21
-3.97443632173401
 31
0.0
  0
LINE
  5
3B7
330
1F
100
AcDbEntity
  8
1
  6
Continuous
 62
     3
100
AcDbLine
 10
-9.9625
 20
-3.97443632173401
 30
0.0
 11
-10.2625
 21
-3.87443632173402
 31
0.0
  0
LINE
  5
3B8
330
1F
100
AcDbEntity
  8
1
  6
Continuous
 62
     3
100
AcDbLine
 10
-10.2625
 20
-3.87443632173402
 30
0.0
 11
-10.45
 21
-3.77443632173402
 31
0.0
  0
LINE
  5
3B9
330
1F
100
AcDbEntity
  8
1
  6
Continuous
 62
     3
100
AcDbLine
 10
-10.45
 20
-3.77443632173402
 30
0.0
 11
-10.6375
 21
-3.57443632173401
 31
0.0
  0
LINE
  5
3BA
330
1F
100
AcDbEntity
  8
1
  6
Continuous
 62
     3
100
AcDbLine
 10
-10.6375
 20
-3.57443632173401
 30
0.0
 11
-10.825
 21
-3.22443632173401
 31
0.0
  0
LINE
  5
3BB
330
1F
100
AcDbEntity
  8
1
  6
Continuous
 62
     3
100
AcDbLine
 10
-10.825
 20
-3.22443632173401
 30
0.0
 11
-10.9375
 21
-2.87443632173402
 31
0.0
  0
LINE
  5
3BC
330
1F
100
AcDbEntity
  8
1
  6
Continuous
 62
     3
100
AcDbLine
 10
-10.9375
 20
-2.87443632173402
 30
0.0
 11
-10.975
 21
-2.52443632173402
 31
0.0
  0
LINE
  5
3BD
330
1F
100
AcDbEntity
  8
1
  6
Continuous
 62
     3
100
AcDbLine
 10
-10.975
 20
-2.52443632173402
 30
0.0
 11
-10.6
 21
-2.52443632173402
 31
0.0
  0
LINE
  5
3BE
330
1F
100
AcDbEntity
  8
1
  6
Continuous
 62
     3
100
AcDbLine
 10
-13.9670079961849
 20
-9.00963296428699
 30
0.0
 11
-13.9670079961849
 21
-5.00963296428699
 31
0.0
  0
LINE
  5
3BF
330
1F
100
AcDbEntity
  8
1
  6
Continuous
 62
     3
100
AcDbLine
 10
-13.9670079961849
 20
-5.00963296428699
 30
0.0
 11
-14.3350079961849
 21
-5.00963296428699
 31
0.0
  0
LINE
  5
3C0
330
1F
100
AcDbEntity
  8
1
  6
Continuous
 62
     3
100
AcDbLine
 10
-14.3350079961849
 20
-5.00963296428699
 30
0.0
 11
-14.3810079961849
 21
-5.15963296428699
 31
0.0
  0
LINE
  5
3C1
330
1F
100
AcDbEntity
  8
1
  6
Continuous
 62
     3
100
AcDbLine
 10
-14.3810079961849
 20
-5.15963296428699
 30
0.0
 11
-14.5190079961849
 21
-5.35963296428699
 31
0.0
  0
LINE
  5
3C2
330
1F
100
AcDbEntity
  8
1
  6
Continuous
 62
     3
100
AcDbLine
 10
-14.5190079961849
 20
-5.35963296428699
 30
0.0
 11
-14.6570079961849
 21
-5.50963296428699
 31
0.0
  0
LINE
  5
3C3
330
1F
100
AcDbEntity
  8
1
  6
Continuous
 62
     3
100
AcDbLine
 10
-14.6570079961849
 20
-5.50963296428699
 30
0.0
 11
-14.8410079961849
 21
-5.60963296428699
 31
0.0
  0
LINE
  5
3C4
330
1F
100
AcDbEntity
  8
1
  6
Continuous
 62
     3
100
AcDbLine
 10
-14.8410079961849
 20
-5.60963296428699
 30
0.0
 11
-14.9790079961849
 21
-5.65963296428699
 31
0.0
  0
LINE
  5
3C5
330
1F
100
AcDbEntity
  8
1
  6
Continuous
 62
     3
100
AcDbLine
 10
-14.9790079961849
 20
-5.65963296428699
 30
0.0
 11
-15.2090079961849
 21
-5.70963296428699
 31
0.0
  0
LINE
  5
3C6
330
1F
100
AcDbEntity
  8
1
  6
Continuous
 62
     3
100
AcDbLine
 10
-15.2090079961849
 20
-5.70963296428699
 30
0.0
 11
-15.3010079961849
 21
-5.70963296428699
 31
0.0
  0
LINE
  5
3C7
330
1F
100
AcDbEntity
  8
1
  6
Continuous
 62
     3
100
AcDbLine
 10
-15.3010079961849
 20
-5.70963296428699
 30
0.0
 11
-15.3010079961849
 21
-6.10963296428699
 31
0.0
  0
LINE
  5
3C8
330
1F
100
AcDbEntity
  8
1
  6
Continuous
 62
     3
100
AcDbLine
 10
-15.3010079961849
 20
-6.10963296428699
 30
0.0
 11
-14.4270079961849
 21
-6.10963296428699
 31
0.0
  0
LINE
  5
3C9
330
1F
100
AcDbEntity
  8
1
  6
Continuous
 62
     3
100
AcDbLine
 10
-14.4270079961849
 20
-6.10963296428699
 30
0.0
 11
-14.4270079961849
 21
-9.00963296428699
 31
0.0
  0
LINE
  5
3CA
330
1F
100
AcDbEntity
  8
1
  6
Continuous
 62
     3
100
AcDbLine
 10
-14.4270079961849
 20
-9.00963296428699
 30
0.0
 11
-13.9670079961849
 21
-9.00963296428699
 31
0.0
  0
LINE
  5
3CB
330
1F
100
AcDbEntity
  8
1
  6
Continuous
 62
     3
100
AcDbLine
 10
-11.6670079961849
 20
-5.00963296428699
 30
0.0
 11
-11.1610079961849
 21
-5.00963296428699
 31
0.0
  0
LINE
  5
3CC
330
1F
100
AcDbEntity
  8
1
  6
Continuous
 62
     3
100
AcDbLine
 10
-11.1610079961849
 20
-5.00963296428699
 30
0.0
 11
-11.1610079961849
 21
-7.60963296428699
 31
0.0
  0
LINE
  5
3CD
330
1F
100
AcDbEntity
  8
1
  6
Continuous
 62
     3
100
AcDbLine
 10
-11.1610079961849
 20
-7.60963296428699
 30
0.0
 11
-10.7010079961849
 21
-7.60963296428699
 31
0.0
  0
LINE
  5
3CE
330
1F
100
AcDbEntity
  8
1
  6
Continuous
 62
     3
100
AcDbLine
 10
-10.7010079961849
 20
-7.60963296428699
 30
0.0
 11
-10.7010079961849
 21
-8.10963296428699
 31
0.0
  0
LINE
  5
3CF
330
1F
100
AcDbEntity
  8
1
  6
Continuous
 62
     3
100
AcDbLine
 10
-10.7010079961849
 20
-8.10963296428699
 30
0.0
 11
-11.1610079961849
 21
-8.10963296428699
 31
0.0
  0
LINE
  5
3D0
330
1F
100
AcDbEntity
  8
1
  6
Continuous
 62
     3
100
AcDbLine
 10
-11.1610079961849
 20
-8.10963296428699
 30
0.0
 11
-11.1610079961849
 21
-9.00963296428699
 31
0.0
  0
LINE
  5
3D1
330
1F
100
AcDbEntity
  8
1
  6
Continuous
 62
     3
100
AcDbLine
 10
-11.1610079961849
 20
-9.00963296428699
 30
0.0
 11
-11.6670079961849
 21
-9.00963296428699
 31
0.0
  0
LINE
  5
3D2
330
1F
100
AcDbEntity
  8
1
  6
Continuous
 62
     3
100
AcDbLine
 10
-11.6670079961849
 20
-9.00963296428699
 30
0.0
 11
-11.6670079961849
 21
-8.10963296428699
 31
0.0
  0
LINE
  5
3D3
330
1F
100
AcDbEntity
  8
1
  6
Continuous
 62
     3
100
AcDbLine
 10
-11.6670079961849
 20
-8.10963296428699
 30
0.0
 11
-13.2310079961849
 21
-8.10963296428699
 31
0.0
  0
LINE
  5
3D4
330
1F
100
AcDbEntity
  8
1
  6
Continuous
 62
     3
100
AcDbLine
 10
-13.2310079961849
 20
-8.10963296428699
 30
0.0
 11
-13.2310079961849
 21
-7.55963296428699
 31
0.0
  0
LINE
  5
3D5
330
1F
100
AcDbEntity
  8
1
  6
Continuous
 62
     3
100
AcDbLine
 10
-13.2310079961849
 20
-7.55963296428699
 30
0.0
 11
-11.6670079961849
 21
-5.00963296428699
 31
0.0
  0
LINE
  5
3D6
330
1F
100
AcDbEntity
  8
1
  6
Continuous
 62
     3
100
AcDbLine
 10
-11.6670079961849
 20
-5.90963296428699
 30
0.0
 11
-12.7250079961849
 21
-7.60963296428699
 31
0.0
  0
LINE
  5
3D7
330
1F
100
AcDbEntity
  8
1
  6
Continuous
 62
     3
100
AcDbLine
 10
-12.7250079961849
 20
-7.60963296428699
 30
0.0
 11
-11.6670079961849
 21
-7.60963296428699
 31
0.0
  0
LINE
  5
3D8
330
1F
100
AcDbEntity
  8
1
  6
Continuous
 62
     3
100
AcDbLine
 10
-11.6670079961849
 20
-7.60963296428699
 30
0.0
 11
-11.6670079961849
 21
-5.90963296428699
 31
0.0
  0
ARC
  5
3E3
330
1F
100
AcDbEntity
  8
1
  6
Continuous
 62
     3
100
AcDbCircle
 10
0.0
 20
51.1159321236677
 30
0.0
 40
10.36683564357451
100
AcDbArc
 50
246.0185834387146
 51
293.9814165612856
  0
ARC
  5
3E4
330
1F
100
AcDbEntity
  8
1
  6
Continuous
 62
     3
100
AcDbCircle
 10
-7.11887140440815
 20
85.9249580904296
 30
0.0
 40
51.11887149684063
100
AcDbArc
 50
353.9080497503394
 51
6.09195024965164
  0
ARC
  5
3E5
330
1F
100
AcDbEntity
  8
1
  6
Continuous
 62
     3
100
AcDbCircle
 10
-7.11887140440692
 20
116.075041909573
 30
0.0
 40
51.11887149684069
100
AcDbArc
 50
353.9080497503439
 51
6.09195024965614
  0
ARC
  5
3E6
330
1F
100
AcDbEntity
  8
1
  6
Continuous
 62
     3
100
AcDbCircle
 10
0.0
 20
101.000000000001
 30
0.0
 40
9.99999999999997
100
AcDbArc
 50
180.0
 51
0.0
  0
ARC
  5
3E7
330
1F
100
AcDbEntity
  8
1
  6
Continuous
 62
     3
100
AcDbCircle
 10
0.0
 20
101.000000000001
 30
0.0
 40
9.99999999999997
100
AcDbArc
 50
0.0
 51
90.0
  0
ARC
  5
3E8
330
1F
100
AcDbEntity
  8
1
  6
Continuous
 62
     3
100
AcDbCircle
 10
49.7833343514858
 20
101.000000000001
 30
0.0
 40
93.78333435148579
100
AcDbArc
 50
175.5033307204184
 51
184.496669279582
  0
ARC
  5
3E9
330
1F
100
AcDbEntity
  8
1
  6
Continuous
 62
     3
100
AcDbCircle
 10
7.11887140440695
 20
85.9249580904275
 30
0.0
 40
51.11887149684071
100
AcDbArc
 50
173.908049750344
 51
186.091950249656
  0
ARC
  5
3EA
330
1F
100
AcDbEntity
  8
1
  6
Continuous
 62
     3
100
AcDbCircle
 10
-23.0734422419678
 20
79.5370057774052
 30
0.0
 40
0.9999999999999952
100
AcDbArc
 50
195.5751994137833
 51
255.0000000000016
  0
ARC
  5
3EB
330
1F
100
AcDbEntity
  8
1
  6
Continuous
 62
     3
100
AcDbCircle
 10
7.7320508075689
 20
73.0000000000006
 30
0.0
 40
0.9999999999999766
100
AcDbArc
 50
209.9006663635774
 51
270.4510983942289
  0
ARC
  5
3EC
330
1F
100
AcDbEntity
  8
1
  6
Continuous
 62
     3
100
AcDbCircle
 10
7.7320508075689
 20
73.0000000000006
 30
0.0
 40
0.9999999999999836
100
AcDbArc
 50
210.0000000000005
 51
270.0
  0
ARC
  5
3ED
330
1F
100
AcDbEntity
  8
1
  6
Continuous
 62
     3
100
AcDbCircle
 10
-23.0734422419678
 20
122.462994222596
 30
0.0
 40
0.999999999999937
100
AcDbArc
 50
104.9999999999996
 51
164.4248005862332
  0
ARC
  5
3EE
330
1F
100
AcDbEntity
  8
1
  6
Continuous
 62
     3
100
AcDbCircle
 10
7.7320508075689
 20
129.000000000001
 30
0.0
 40
0.9999999999999236
100
AcDbArc
 50
89.54890160577104
 51
150.0993336364216
  0
ARC
  5
3EF
330
1F
100
AcDbEntity
  8
1
  6
Continuous
 62
     3
100
AcDbCircle
 10
7.7320508075689
 20
129.000000000001
 30
0.0
 40
1.0
100
AcDbArc
 50
90.0
 51
149.9999999999997
  0
ARC
  5
3F0
330
1F
100
AcDbEntity
  8
1
  6
Continuous
 62
     3
100
AcDbCircle
 10
120.787394553029
 20
100.879999742236
 30
0.0
 40
2.215857153750777
100
AcDbArc
 50
332.6950797484924
 51
3.10438490039149
  0
ARC
  5
3F1
330
1F
100
AcDbEntity
  8
1
  6
Continuous
 62
     3
100
AcDbCircle
 10
130.195800475682
 20
94.5608483041
 30
0.0
 40
9.135849838620127
100
AcDbArc
 50
144.519522513832
 51
154.5845657550547
  0
ARC
  5
3F2
330
1F
100
AcDbEntity
  8
1
  6
Continuous
 62
     3
100
AcDbCircle
 10
117.0
 20
101.000000000001
 30
0.0
 40
5.548501779755195
100
AcDbArc
 50
293.8739774024158
 51
333.0084059884312
  0
ARC
  5
3F3
330
1F
100
AcDbEntity
  8
1
  6
Continuous
 62
     3
100
AcDbCircle
 10
90.22436988555093
 20
158.2399991209127
 30
0.0
 40
68.74036529571644
100
AcDbArc
 50
269.8129851323409
 51
294.9727080142513
  0
ARC
  5
3F4
330
1F
100
AcDbEntity
  8
1
  6
Continuous
 62
     3
100
AcDbCircle
 10
120.787394553029
 20
101.120000257765
 30
0.0
 40
2.215857153750926
100
AcDbArc
 50
356.8956150996342
 51
27.30492025151476
  0
ARC
  5
3F5
330
1F
100
AcDbEntity
  8
1
  6
Continuous
 62
     3
100
AcDbCircle
 10
130.195800475682
 20
107.439151695901
 30
0.0
 40
9.135849838619993
100
AcDbArc
 50
205.4154342449453
 51
215.4804774861665
  0
ARC
  5
3F6
330
1F
100
AcDbEntity
  8
1
  6
Continuous
 62
     3
100
AcDbCircle
 10
117.0
 20
101.000000000001
 30
0.0
 40
5.54850177975482
100
AcDbArc
 50
26.99159401155971
 51
66.12602259757934
  0
ARC
  5
3F7
330
1F
100
AcDbEntity
  8
1
  6
Continuous
 62
     3
100
AcDbCircle
 10
90.22436988555096
 20
43.76000087908854
 30
0.0
 40
68.74036529571586
100
AcDbArc
 50
65.02729198574849
 51
90.18701486765909
  0
ARC
  5
3F8
102
{ACAD_REACTORS
330
479
102
}
330
1F
100
AcDbEntity
  8
1
  6
Continuous
 62
     3
100
AcDbCircle
 10
40.5878467128701
 20
101.059862976015
 30
0.0
 40
8.90017764820307
100
AcDbArc
 50
350.0395894593879
 51
8.49373685649049
  0
ARC
  5
3F9
102
{ACAD_REACTORS
330
479
102
}
330
1F
100
AcDbEntity
  8
1
  6
Continuous
 62
     3
100
AcDbCircle
 10
40.7765706888184
 20
101.059862976015
 30
0.0
 40
8.900177648202972
100
AcDbArc
 50
350.0395894593878
 51
8.49373685649049
  0
ARC
  5
3FA
330
1F
100
AcDbEntity
  8
1
  6
Continuous
 62
     3
100
AcDbCircle
 10
0.0
 20
101.000000000001
 30
0.0
 40
10.0
100
AcDbArc
 50
90.0
 51
180.0
  0
ARC
  5
3FB
330
1F
100
AcDbEntity
  8
1
  6
Continuous
 62
     3
100
AcDbCircle
 10
24.9223812462724
 20
109.575769533617
 30
0.0
 40
1.562224658080539
100
AcDbArc
 50
78.05930254801952
 51
170.0288460497682
  0
ARC
  5
3FC
330
1F
100
AcDbEntity
  8
1
  6
Continuous
 62
     3
100
AcDbCircle
 10
23.2582420057384
 20
109.12877293013
 30
0.0
 40
0.7453250103118043
100
AcDbArc
 50
5.60777619326101
 51
69.7549120163585
  0
ARC
  5
3FD
330
1F
100
AcDbEntity
  8
1
  6
Continuous
 62
     3
100
AcDbCircle
 10
24.9223812462724
 20
92.4242304663844
 30
0.0
 40
1.562224658080202
100
AcDbArc
 50
189.9711539502395
 51
281.9406974519827
  0
ARC
  5
3FE
330
1F
100
AcDbEntity
  8
1
  6
Continuous
 62
     3
100
AcDbCircle
 10
23.2582420057384
 20
92.8712270698708
 30
0.0
 40
0.7453250103115455
100
AcDbArc
 50
290.2450879836521
 51
354.392223806801
  0
ARC
  5
3FF
330
1F
100
AcDbEntity
  8
1
  6
Continuous
 62
     3
100
AcDbCircle
 10
0.0
 20
101.000000000001
 30
0.0
 40
9.999999999999828
100
AcDbArc
 50
174.1477399170264
 51
174.4048396908539
  0
ARC
  5
400
330
1F
100
AcDbEntity
  8
1
  6
Continuous
 62
     3
100
AcDbCircle
 10
0.0
 20
101.000000000001
 30
0.0
 40
4.975000000000006
100
AcDbArc
 50
33.41874004069111
 51
146.5812599593087
  0
ARC
  5
401
330
1F
100
AcDbEntity
  8
1
  6
Continuous
 62
     3
100
AcDbCircle
 10
0.0
 20
101.000000000001
 30
0.0
 40
4.975000000000163
100
AcDbArc
 50
326.5812599593061
 51
33.41874004069111
  0
ARC
  5
402
330
1F
100
AcDbEntity
  8
1
  6
Continuous
 62
     3
100
AcDbCircle
 10
0.0
 20
101.000000000001
 30
0.0
 40
4.975000000000138
100
AcDbArc
 50
213.418740040694
 51
326.5812599593061
  0
ARC
  5
403
330
1F
100
AcDbEntity
  8
1
  6
Continuous
 62
     3
100
AcDbCircle
 10
0.0
 20
101.000000000001
 30
0.0
 40
4.974999999999981
100
AcDbArc
 50
146.5812599593087
 51
213.418740040694
  0
ARC
  5
404
330
1F
100
AcDbEntity
  8
1
  6
Continuous
 62
     3
100
AcDbCircle
 10
0.0
 20
101.000000000001
 30
0.0
 40
4.213500000000191
100
AcDbArc
 50
319.4364745797884
 51
40.56352542020924
  0
ARC
  5
405
330
1F
100
AcDbEntity
  8
1
  6
Continuous
 62
     3
100
AcDbCircle
 10
0.0
 20
101.000000000001
 30
0.0
 40
4.213499999999983
100
AcDbArc
 50
139.436474579791
 51
220.5635254202114
  0
ARC
  5
406
330
1F
100
AcDbEntity
  8
1
  6
Continuous
 62
     3
100
AcDbCircle
 10
0.0
 20
101.000000000001
 30
0.0
 40
3.975000000000205
100
AcDbArc
 50
316.4246300665095
 51
43.57536993348803
  0
ARC
  5
407
330
1F
100
AcDbEntity
  8
1
  6
Continuous
 62
     3
100
AcDbCircle
 10
0.0
 20
101.000000000001
 30
0.0
 40
3.974999999999973
100
AcDbArc
 50
43.57536993348803
 51
136.4246300665122
  0
ARC
  5
408
330
1F
100
AcDbEntity
  8
1
  6
Continuous
 62
     3
100
AcDbCircle
 10
0.0
 20
101.000000000001
 30
0.0
 40
3.974999999999988
100
AcDbArc
 50
136.4246300665122
 51
223.5753699334915
  0
ARC
  5
409
330
1F
100
AcDbEntity
  8
1
  6
Continuous
 62
     3
100
AcDbCircle
 10
0.0
 20
101.000000000001
 30
0.0
 40
3.975000000000274
100
AcDbArc
 50
223.5753699334915
 51
316.4246300665095
  0
ARC
  5
40A
330
1F
100
AcDbEntity
  8
1
  6
Continuous
 62
     3
100
AcDbCircle
 10
-23.0734422419678
 20
-21.4629942225955
 30
0.0
 40
0.9999999999999676
100
AcDbArc
 50
195.5751994137776
 51
255.0000000000002
  0
ARC
  5
40B
330
1F
100
AcDbEntity
  8
1
  6
Continuous
 62
     3
100
AcDbCircle
 10
7.7320508075689
 20
-28.0
 30
0.0
 40
0.999999999999932
100
AcDbArc
 50
210.0000000000022
 51
270.4510983942318
  0
ARC
  5
40C
330
1F
100
AcDbEntity
  8
1
  6
Continuous
 62
     3
100
AcDbCircle
 10
-23.0734422419678
 20
21.4629942225954
 30
0.0
 40
1.000000000000026
100
AcDbArc
 50
104.9999999999983
 51
164.4248005862167
  0
ARC
  5
40D
330
1F
100
AcDbEntity
  8
1
  6
Continuous
 62
     3
100
AcDbCircle
 10
120.016089522775
 20
58.2127192974113
 30
0.0
 40
2.985077180779325
100
AcDbArc
 50
313.6544473695683
 51
358.3980304577931
  0
ARC
  5
40E
330
1F
100
AcDbEntity
  8
1
  6
Continuous
 62
     3
100
AcDbCircle
 10
10.2394545701313
 20
35.7609966516917
 30
0.0
 40
0.2395293305803584
100
AcDbArc
 50
86.20227653916471
 51
178.5684532762093
  0
ARC
  5
40F
330
1F
100
AcDbEntity
  8
1
  6
Continuous
 62
     3
100
AcDbCircle
 10
42.0000000000001
 20
47.0
 30
0.0
 40
8.5
100
AcDbArc
 50
90.0
 51
125.1368982852635
  0
ARC
  5
410
330
1F
100
AcDbEntity
  8
1
  6
Continuous
 62
     3
100
AcDbCircle
 10
42.0000000000001
 20
47.0
 30
0.0
 40
14.0
100
AcDbArc
 50
90.0
 51
127.3184671304527
  0
ARC
  5
411
330
1F
100
AcDbEntity
  8
1
  6
Continuous
 62
     3
100
AcDbCircle
 10
26.9031002365722
 20
48.4156850403289
 30
0.0
 40
2.905474351683226
100
AcDbArc
 50
135.6005277733215
 51
177.6836212599436
  0
ARC
  5
412
330
1F
100
AcDbEntity
  8
1
  6
Continuous
 62
     3
100
AcDbCircle
 10
24.9111319014767
 20
46.3765343906876
 30
0.0
 40
2.578417113162517
100
AcDbArc
 50
249.3065011922971
 51
321.6013600523358
  0
ARC
  5
413
330
1F
100
AcDbEntity
  8
1
  6
Continuous
 62
     3
100
AcDbCircle
 10
120.016089522775
 20
58.2127192974113
 30
0.0
 40
2.985077180779784
100
AcDbArc
 50
358.3980304577931
 51
53.05445503173077
  0
ARC
  5
414
330
1F
100
AcDbEntity
  8
1
  6
Continuous
 62
     3
100
AcDbCircle
 10
-86.8964356480981
 20
354.797703948483
 30
0.0
 40
328.7964152544473
100
AcDbArc
 50
268.2571398678195
 51
271.7428601321804
  0
ARC
  5
415
330
1F
100
AcDbEntity
  8
1
  6
Continuous
 62
     3
100
AcDbCircle
 10
-86.8964356480983
 20
0.0
 30
0.0
 40
27.9999999999997
100
AcDbArc
 50
180.0
 51
67.70902962524104
  0
ARC
  5
416
330
1F
100
AcDbEntity
  8
1
  6
Continuous
 62
     3
100
AcDbCircle
 10
-86.8964356480983
 20
0.0
 30
0.0
 40
27.99999999999997
100
AcDbArc
 50
112.290970374759
 51
180.0
  0
ARC
  5
417
330
1F
100
AcDbEntity
  8
1
  6
Continuous
 62
     3
100
AcDbCircle
 10
-86.8964356480983
 20
0.0
 30
0.0
 40
29.0
100
AcDbArc
 50
110.171271346465
 51
69.82872865353502
  0
ARC
  5
418
330
1F
100
AcDbEntity
  8
1
  6
Continuous
 62
     3
100
AcDbCircle
 10
-7.00675000000001
 20
45.2878156686355
 30
0.0
 40
4.591265126074115
100
AcDbArc
 50
232.5272881167443
 51
307.4727118832561
  0
ARC
  5
419
330
1F
100
AcDbEntity
  8
1
  6
Continuous
 62
     3
100
AcDbCircle
 10
-7.00675000000001
 20
41.942332044897
 30
0.0
 40
4.806764435196153
100
AcDbArc
 50
54.47147802298098
 51
125.528521977019
  0
ARC
  5
41A
330
1F
100
AcDbEntity
  8
1
  6
Continuous
 62
     3
100
AcDbCircle
 10
0.0
 20
36.3822608365184
 30
0.0
 40
10.3668356435748
100
AcDbArc
 50
66.01858343871508
 51
113.9814165612848
  0
ARC
  5
41B
330
1F
100
AcDbEntity
  8
1
  6
Continuous
 62
     3
100
AcDbCircle
 10
7.00674999999995
 20
45.555860915289
 30
0.0
 40
4.806764435195777
100
AcDbArc
 50
234.4714780229791
 51
305.528521977021
  0
ARC
  5
41C
330
1F
100
AcDbEntity
  8
1
  6
Continuous
 62
     3
100
AcDbCircle
 10
7.00674999999995
 20
41.9423320448973
 30
0.0
 40
4.806764435195864
100
AcDbArc
 50
54.4714780229797
 51
125.5285219770202
  0
ARC
  5
41D
330
1F
100
AcDbEntity
  8
1
  6
Continuous
 62
     3
100
AcDbCircle
 10
7.7320508075689
 20
-28.0
 30
0.0
 40
0.9999999999999766
100
AcDbArc
 50
209.9006663635774
 51
210.0000000000022
  0
ARC
  5
41E
330
1F
100
AcDbEntity
  8
1
  6
Continuous
 62
     3
100
AcDbCircle
 10
-5.00558536883578
 20
51.4971642431164
 30
0.0
 40
26.07459367560583
100
AcDbArc
 50
297.4150071213568
 51
305.133732627361
  0
ARC
  5
41F
330
1F
100
AcDbEntity
  8
1
  6
Continuous
 62
     3
100
AcDbCircle
 10
2.96383595938795
 20
14.8492424049175
 30
0.0
 40
46.963835959388
100
AcDbArc
 50
173.6440093880491
 51
186.3559906119509
  0
ARC
  5
420
330
1F
100
AcDbEntity
  8
1
  6
Continuous
 62
     3
100
AcDbCircle
 10
49.7833343514812
 20
0.00000000000003
 30
0.0
 40
93.78333435148124
100
AcDbArc
 50
175.503330720418
 51
184.496669279582
  0
ARC
  5
421
330
1F
100
AcDbEntity
  8
1
  6
Continuous
 62
     3
100
AcDbCircle
 10
2.96383595938873
 20
-14.8492424049175
 30
0.0
 40
46.96383595938877
100
AcDbArc
 50
173.6440093880492
 51
186.3559906119509
  0
ARC
  5
422
330
1F
100
AcDbEntity
  8
1
  6
Continuous
 62
     3
100
AcDbCircle
 10
-2.963835959412
 20
14.8492424049175
 30
0.0
 40
46.96383595941191
100
AcDbArc
 50
353.6440093880523
 51
6.35599061194773
  0
ARC
  5
423
330
1F
100
AcDbEntity
  8
1
  6
Continuous
 62
     3
100
AcDbCircle
 10
-49.7833343515235
 20
0.0
 30
0.0
 40
93.78333435152342
100
AcDbArc
 50
355.50333072042
 51
4.49666927958001
  0
ARC
  5
424
330
1F
100
AcDbEntity
  8
1
  6
Continuous
 62
     3
100
AcDbCircle
 10
-2.963835959412
 20
-14.8492424049175
 30
0.0
 40
46.96383595941191
100
AcDbArc
 50
353.6440093880523
 51
6.35599061194775
  0
ARC
  5
425
330
1F
100
AcDbEntity
  8
1
  6
Continuous
 62
     3
100
AcDbCircle
 10
-91.1100117095754
 20
51.1162902535851
 30
0.0
 40
10.36719377349187
100
AcDbArc
 50
246.0190038106105
 51
293.9809961893899
  0
ARC
  5
426
330
1F
100
AcDbEntity
  8
1
  6
Continuous
 62
     3
100
AcDbCircle
 10
-91.1100117095754
 20
36.3819027066014
 30
0.0
 40
10.36719377349182
100
AcDbArc
 50
66.01900381060982
 51
113.9809961893897
  0
ARC
  5
427
330
1F
100
AcDbEntity
  8
1
  6
Continuous
 62
     3
100
AcDbCircle
 10
-82.6464356480983
 20
51.2885325231392
 30
0.0
 40
10.53943604304597
100
AcDbArc
 50
246.2186543381333
 51
293.7813456618667
  0
ARC
  5
428
330
1F
100
AcDbEntity
  8
1
  6
Continuous
 62
     3
100
AcDbCircle
 10
-82.6464356480983
 20
36.2096604370467
 30
0.0
 40
10.53943604304643
100
AcDbArc
 50
66.21865433813439
 51
113.7813456618656
  0
ARC
  5
429
330
1F
100
AcDbEntity
  8
1
  6
Continuous
 62
     3
100
AcDbCircle
 10
-78.1568523147648
 20
58.25
 30
0.0
 40
2.760416666666503
100
AcDbArc
 50
271.9232318534853
 51
94.97910584400175
  0
ARC
  5
42A
330
1F
100
AcDbEntity
  8
1
  6
Continuous
 62
     3
100
AcDbCircle
 10
-95.6360189814318
 20
58.25
 30
0.0
 40
2.760416666666681
100
AcDbArc
 50
85.02089415599826
 51
268.0767681465149
  0
ARC
  5
42B
330
1F
100
AcDbEntity
  8
1
  6
Continuous
 62
     3
100
AcDbCircle
 10
7.11887140440695
 20
116.075041909574
 30
0.0
 40
51.11887149684072
100
AcDbArc
 50
173.9080497503439
 51
186.0919502496561
  0
ARC
  5
42C
330
1F
100
AcDbEntity
  8
1
  6
Continuous
 62
     3
100
AcDbCircle
 10
-5.00558536883578
 20
51.4971642431164
 30
0.0
 40
26.07459367560584
100
AcDbArc
 50
258.9321243344505
 51
275.4243709727272
  0
ARC
  5
42D
330
1F
100
AcDbEntity
  8
1
  6
Continuous
 62
     3
100
AcDbCircle
 10
-5.00558536883578
 20
51.4971642431164
 30
0.0
 40
26.07459367560589
100
AcDbArc
 50
275.4243709727272
 51
297.4150071213568
  0
ARC
  5
42E
330
1F
100
AcDbEntity
  8
1
  6
Continuous
 62
     3
100
AcDbCircle
 10
24.1999999999977
 20
72.1999999999998
 30
0.0
 40
0.1999999999977007
100
AcDbArc
 50
179.9999999999715
 51
270.0
  0
ARC
  5
42F
330
1F
100
AcDbEntity
  8
1
  6
Continuous
 62
     3
100
AcDbCircle
 10
25.9999999999978
 20
73.9999999999998
 30
0.0
 40
2.0
100
AcDbArc
 50
269.9999999999942
 51
359.9999999999915
  0
ARC
  5
430
330
1F
100
AcDbEntity
  8
1
  6
Continuous
 62
     3
100
AcDbCircle
 10
25.9999999999978
 20
73.9999999999998
 30
0.0
 40
2.0
100
AcDbArc
 50
269.9999999999942
 51
359.9999999999915
  0
ARC
  5
431
330
1F
100
AcDbEntity
  8
1
  6
Continuous
 62
     3
100
AcDbCircle
 10
29.4999999999982
 20
78.4999999999995
 30
0.0
 40
1.5
100
AcDbArc
 50
89.99999999999622
 51
179.9999999999962
  0
ARC
  5
432
330
1F
100
AcDbEntity
  8
1
  6
Continuous
 62
     3
100
AcDbCircle
 10
29.5
 20
123.500000000001
 30
0.0
 40
1.5
100
AcDbArc
 50
180.0
 51
270.0
  0
ARC
  5
433
330
1F
100
AcDbEntity
  8
1
  6
Continuous
 62
     3
100
AcDbCircle
 10
24.2000000000001
 20
129.800000000001
 30
0.0
 40
0.1999999999999886
100
AcDbArc
 50
90.0
 51
180.0
  0
ARC
  5
434
330
1F
100
AcDbEntity
  8
1
  6
Continuous
 62
     3
100
AcDbCircle
 10
26.0
 20
128.000000000001
 30
0.0
 40
2.0
100
AcDbArc
 50
0.0
 51
90.0
  0
ARC
  5
435
330
1F
100
AcDbEntity
  8
1
  6
Continuous
 62
     3
100
AcDbCircle
 10
-24.3
 20
80.8000000000006
 30
0.0
 40
0.2999999999999972
100
AcDbArc
 50
270.0
 51
0.0
  0
ARC
  5
436
330
1F
100
AcDbEntity
  8
1
  6
Continuous
 62
     3
100
AcDbCircle
 10
-24.3
 20
91.0499161808544
 30
0.0
 40
0.3000000000000007
100
AcDbArc
 50
0.0
 51
90.0
  0
ARC
  5
437
330
1F
100
AcDbEntity
  8
1
  6
Continuous
 62
     3
100
AcDbCircle
 10
-24.3
 20
93.9472794150742
 30
0.0
 40
0.3000000000000114
100
AcDbArc
 50
270.0
 51
0.0
  0
ARC
  5
438
330
1F
100
AcDbEntity
  8
1
  6
Continuous
 62
     3
100
AcDbCircle
 10
-24.3
 20
108.052720584927
 30
0.0
 40
0.3000000000000007
100
AcDbArc
 50
0.0
 51
90.0
  0
ARC
  5
439
330
1F
100
AcDbEntity
  8
1
  6
Continuous
 62
     3
100
AcDbCircle
 10
-24.3
 20
110.950083819147
 30
0.0
 40
0.2999999999999972
100
AcDbArc
 50
270.0
 51
0.0
  0
ARC
  5
43A
330
1F
100
AcDbEntity
  8
1
  6
Continuous
 62
     3
100
AcDbCircle
 10
-24.3
 20
121.200000000001
 30
0.0
 40
0.3000000000000007
100
AcDbArc
 50
0.0
 51
90.0
  0
ARC
  5
43B
330
1F
100
AcDbEntity
  8
1
  6
Continuous
 62
     3
100
AcDbCircle
 10
-2.50000000000001
 20
116.000000000001
 30
0.0
 40
1.0
100
AcDbArc
 50
89.99999999999768
 51
180.0
  0
ARC
  5
43C
330
1F
100
AcDbEntity
  8
1
  6
Continuous
 62
     3
100
AcDbCircle
 10
2.5
 20
116.000000000001
 30
0.0
 40
1.0
100
AcDbArc
 50
0.0
 51
89.99999999999827
  0
ARC
  5
43D
330
1F
100
AcDbEntity
  8
1
  6
Continuous
 62
     3
100
AcDbCircle
 10
2.5
 20
86.0000000000006
 30
0.0
 40
1.0
100
AcDbArc
 50
270.0
 51
0.0
  0
ARC
  5
43E
330
1F
100
AcDbEntity
  8
1
  6
Continuous
 62
     3
100
AcDbCircle
 10
-2.50000000000001
 20
86.0000000000006
 30
0.0
 40
1.0
100
AcDbArc
 50
180.0
 51
270.0
  0
ARC
  5
43F
330
1F
100
AcDbEntity
  8
1
  6
Continuous
 62
     3
100
AcDbCircle
 10
-4.49999999999997
 20
111.037429949943
 30
0.0
 40
1.000000000000059
100
AcDbArc
 50
294.1477399170208
 51
0.0
  0
ARC
  5
440
330
1F
100
AcDbEntity
  8
1
  6
Continuous
 62
     3
100
AcDbCircle
 10
-25.0
 20
79.0000000000006
 30
0.0
 40
0.9999999999999987
100
AcDbArc
 50
15.57519941378326
 51
90.0
  0
ARC
  5
441
330
1F
100
AcDbEntity
  8
1
  6
Continuous
 62
     3
100
AcDbCircle
 10
6.0
 20
72.0000000000006
 30
0.0
 40
1.000000000000036
100
AcDbArc
 50
29.99999999999881
 51
90.0
  0
ARC
  5
442
330
1F
100
AcDbEntity
  8
1
  6
Continuous
 62
     3
100
AcDbCircle
 10
-25.0
 20
123.000000000001
 30
0.0
 40
1.0
100
AcDbArc
 50
270.0
 51
344.4248005861783
  0
ARC
  5
443
330
1F
100
AcDbEntity
  8
1
  6
Continuous
 62
     3
100
AcDbCircle
 10
6.0
 20
130.000000000001
 30
0.0
 40
1.0
100
AcDbArc
 50
270.0
 51
330.0000000000009
  0
ARC
  5
444
330
1F
100
AcDbEntity
  8
1
  6
Continuous
 62
     3
100
AcDbCircle
 10
29.4999999999999
 20
-22.5
 30
0.0
 40
1.5
100
AcDbArc
 50
90.0
 51
180.0
  0
ARC
  5
445
330
1F
100
AcDbEntity
  8
1
  6
Continuous
 62
     3
100
AcDbCircle
 10
24.1999999999999
 20
-28.8
 30
0.0
 40
0.1999999999998998
100
AcDbArc
 50
180.0
 51
270.0
  0
ARC
  5
446
330
1F
100
AcDbEntity
  8
1
  6
Continuous
 62
     3
100
AcDbCircle
 10
25.9999999999999
 20
-27.0
 30
0.0
 40
2.0
100
AcDbArc
 50
270.0
 51
0.0
  0
ARC
  5
447
330
1F
100
AcDbEntity
  8
1
  6
Continuous
 62
     3
100
AcDbCircle
 10
29.4999999999999
 20
22.4999999999999
 30
0.0
 40
1.5
100
AcDbArc
 50
180.0
 51
270.0
  0
ARC
  5
448
330
1F
100
AcDbEntity
  8
1
  6
Continuous
 62
     3
100
AcDbCircle
 10
-10.3
 20
28.2
 30
0.0
 40
0.1999999999999993
100
AcDbArc
 50
180.0
 51
270.0
  0
ARC
  5
449
330
1F
100
AcDbEntity
  8
1
  6
Continuous
 62
     3
100
AcDbCircle
 10
-10.3
 20
32.3
 30
0.0
 40
0.2000000000000028
100
AcDbArc
 50
90.0
 51
180.0
  0
ARC
  5
44A
330
1F
100
AcDbEntity
  8
1
  6
Continuous
 62
     3
100
AcDbCircle
 10
13.0
 20
32.0
 30
0.0
 40
3.0
100
AcDbArc
 50
180.0
 51
270.0
  0
ARC
  5
44B
330
1F
100
AcDbEntity
  8
1
  6
Continuous
 62
     3
100
AcDbCircle
 10
-25.0
 20
-22.0
 30
0.0
 40
0.9999999999999987
100
AcDbArc
 50
15.57519941378326
 51
90.0
  0
ARC
  5
44C
330
1F
100
AcDbEntity
  8
1
  6
Continuous
 62
     3
100
AcDbCircle
 10
6.0
 20
-29.0
 30
0.0
 40
1.000000000000087
100
AcDbArc
 50
29.99999999999711
 51
90.0
  0
ARC
  5
44D
330
1F
100
AcDbEntity
  8
1
  6
Continuous
 62
     3
100
AcDbCircle
 10
-25.0
 20
22.0
 30
0.0
 40
1.0
100
AcDbArc
 50
270.0
 51
344.4248005862167
  0
ARC
  5
44E
330
1F
100
AcDbEntity
  8
1
  6
Continuous
 62
     3
100
AcDbCircle
 10
15.2899494936612
 20
37.8
 30
0.0
 40
1.799999999999997
100
AcDbArc
 50
270.0
 51
314.9999999999978
  0
ARC
  5
44F
330
1F
100
AcDbEntity
  8
1
  6
Continuous
 62
     3
100
AcDbCircle
 10
-11.5
 20
35.5
 30
0.0
 40
0.5
100
AcDbArc
 50
90.0
 51
180.0
  0
ARC
  5
450
330
1F
100
AcDbEntity
  8
1
  6
Continuous
 62
     3
100
AcDbCircle
 10
-13.3
 20
37.3
 30
0.0
 40
1.200000000000003
100
AcDbArc
 50
90.0
 51
180.0
  0
ARC
  5
451
330
1F
100
AcDbEntity
  8
1
  6
Continuous
 62
     3
100
AcDbCircle
 10
14.7928932188134
 20
39.0
 30
0.0
 40
0.5
100
AcDbArc
 50
270.0
 51
315.0000000000002
  0
ARC
  5
452
330
1F
100
AcDbEntity
  8
1
  6
Continuous
 62
     3
100
AcDbCircle
 10
120.69609559274
 20
57.5
 30
0.0
 40
2.0
100
AcDbArc
 50
270.0
 51
313.6544473695676
  0
ARC
  5
453
330
1F
100
AcDbEntity
  8
1
  6
Continuous
 62
     3
100
AcDbCircle
 10
120.608175789651
 20
59.0
 30
0.0
 40
2.000000000000228
100
AcDbArc
 50
53.054455031734
 51
90.0
  0
ARC
  5
454
330
1F
100
AcDbEntity
  8
1
  6
Continuous
 62
     3
100
AcDbCircle
 10
-75.8964356480983
 20
26.8328157299975
 30
0.0
 40
1.0
100
AcDbArc
 50
180.0
 51
247.7090296252414
  0
ARC
  5
455
330
1F
100
AcDbEntity
  8
1
  6
Continuous
 62
     3
100
AcDbCircle
 10
-97.8964356480983
 20
26.8328157299975
 30
0.0
 40
1.000000000000053
100
AcDbArc
 50
292.2909703747587
 51
0.0
  0
ARC
  5
456
330
1F
100
AcDbEntity
  8
1
  6
Continuous
 62
     3
100
AcDbCircle
 10
-73.8964356480983
 20
27.0
 30
0.0
 40
3.0
100
AcDbArc
 50
90.0
 51
180.0
  0
ARC
  5
457
330
1F
100
AcDbEntity
  8
1
  6
Continuous
 62
     3
100
AcDbCircle
 10
-99.8964356480983
 20
27.0
 30
0.0
 40
3.0
100
AcDbArc
 50
0.0
 51
90.0
  0
ARC
  5
458
330
1F
100
AcDbEntity
  8
1
  6
Continuous
 62
     3
100
AcDbCircle
 10
-72.8964356480983
 20
32.0
 30
0.0
 40
2.0
100
AcDbArc
 50
270.0
 51
0.0
  0
ARC
  5
459
330
1F
100
AcDbEntity
  8
1
  6
Continuous
 62
     3
100
AcDbCircle
 10
-100.896435648098
 20
32.0
 30
0.0
 40
2.0
100
AcDbArc
 50
180.0
 51
270.0
  0
ARC
  5
45A
330
1F
100
AcDbEntity
  8
1
  6
Continuous
 62
     3
100
AcDbCircle
 10
-71.8964356480983
 20
33.0
 30
0.0
 40
1.0
100
AcDbArc
 50
0.0
 51
90.0
  0
ARC
  5
45B
330
1F
100
AcDbEntity
  8
1
  6
Continuous
 62
     3
100
AcDbCircle
 10
-101.896435648098
 20
33.0
 30
0.0
 40
1.0
100
AcDbArc
 50
90.0
 51
180.0
  0
ARC
  5
45C
330
1F
100
AcDbEntity
  8
1
  6
Continuous
 62
     3
100
AcDbCircle
 10
-3.20000000000001
 20
30.3
 30
0.0
 40
0.3000000000000003
100
AcDbArc
 50
180.0
 51
270.0
  0
ARC
  5
45D
330
1F
100
AcDbEntity
  8
1
  6
Continuous
 62
     3
100
AcDbCircle
 10
3.2
 20
30.3
 30
0.0
 40
0.3000000000000007
100
AcDbArc
 50
270.0
 51
0.0
  0
ARC
  5
45E
330
1F
100
AcDbEntity
  8
1
  6
Continuous
 62
     3
100
AcDbCircle
 10
3.2
 20
33.7
 30
0.0
 40
0.2999999999999998
100
AcDbArc
 50
0.0
 51
90.0
  0
ARC
  5
45F
330
1F
100
AcDbEntity
  8
1
  6
Continuous
 62
     3
100
AcDbCircle
 10
-3.20000000000001
 20
33.7
 30
0.0
 40
0.2999999999999972
100
AcDbArc
 50
90.0
 51
180.0
  0
ARC
  5
460
330
1F
100
AcDbEntity
  8
1
  6
Continuous
 62
     3
100
AcDbCircle
 10
-13.0
 20
28.3032696579726
 30
0.0
 40
3.000000000000003
100
AcDbArc
 50
285.0000000000007
 51
354.1980655969948
  0
ARC
  5
461
330
1F
100
AcDbEntity
  8
1
  6
Continuous
 62
     3
100
AcDbCircle
 10
-78.0541434305574
 20
55.1913072958018
 30
0.0
 40
0.3000000000000529
100
AcDbArc
 50
91.92323185348359
 51
187.3481268794869
  0
ARC
  5
462
330
1F
100
AcDbEntity
  8
1
  6
Continuous
 62
     3
100
AcDbCircle
 10
-95.7387278656392
 20
55.1913072958018
 30
0.0
 40
0.2999999999999856
100
AcDbArc
 50
352.6518731205113
 51
88.07676814651514
  0
ARC
  5
463
330
1F
100
AcDbEntity
  8
1
  6
Continuous
 62
     3
100
AcDbCircle
 10
-95.3027124702577
 20
47.0
 30
0.0
 40
0.5
100
AcDbArc
 50
90.0
 51
172.6949829868987
  0
ARC
  5
464
330
1F
100
AcDbEntity
  8
1
  6
Continuous
 62
     3
100
AcDbCircle
 10
-77.327060180061
 20
44.298117277525
 30
0.0
 40
0.5
100
AcDbArc
 50
270.0
 51
7.3481268794813
  0
ARC
  5
465
330
1F
100
AcDbEntity
  8
1
  6
Continuous
 62
     3
100
AcDbCircle
 10
-96.4658111161356
 20
44.298117277525
 30
0.0
 40
0.4999999999999581
100
AcDbArc
 50
172.6518731205187
 51
270.0
  0
ARC
  5
466
330
1F
100
AcDbEntity
  8
1
  6
Continuous
 62
     3
100
AcDbCircle
 10
-83.0964356480983
 20
38.2
 30
0.0
 40
0.2999999999999972
100
AcDbArc
 50
90.0
 51
180.0
  0
ARC
  5
467
330
1F
100
AcDbEntity
  8
1
  6
Continuous
 62
     3
100
AcDbCircle
 10
-77.1964356480983
 20
38.2
 30
0.0
 40
0.2999999999999972
100
AcDbArc
 50
0.0
 51
90.0
  0
ARC
  5
468
330
1F
100
AcDbEntity
  8
1
  6
Continuous
 62
     3
100
AcDbCircle
 10
-78.4901588259389
 20
47.0
 30
0.0
 40
0.4999999999999807
100
AcDbArc
 50
7.30501701310135
 51
90.0
  0
ARC
  5
469
330
1F
100
AcDbEntity
  8
1
  6
Continuous
 62
     3
100
AcDbCircle
 10
-100.596435648098
 20
37.7
 30
0.0
 40
0.7999999999999972
100
AcDbArc
 50
90.0
 51
180.0
  0
ARC
  5
46A
330
1F
100
AcDbEntity
  8
1
  6
Continuous
 62
     3
100
AcDbCircle
 10
-100.596435648098
 20
37.7
 30
0.0
 40
0.7999999999999972
100
AcDbArc
 50
90.0
 51
180.0
  0
ARC
  5
46B
330
1F
100
AcDbEntity
  8
1
  6
Continuous
 62
     3
100
AcDbCircle
 10
-96.3964356480983
 20
37.9999999999999
 30
0.0
 40
0.5000000000000995
100
AcDbArc
 50
90.0
 51
180.0
  0
ARC
  5
46C
330
1F
100
AcDbEntity
  8
1
  6
Continuous
 62
     3
100
AcDbCircle
 10
-96.0964356480983
 20
35.2
 30
0.0
 40
0.7999999999999972
100
AcDbArc
 50
90.0
 51
180.0
  0
ARC
  5
46D
330
1F
100
AcDbEntity
  8
1
  6
Continuous
 62
     3
100
AcDbCircle
 10
24.1999999999999
 20
28.8
 30
0.0
 40
0.1999999999999993
100
AcDbArc
 50
90.0
 51
180.0
  0
ARC
  5
46E
330
1F
100
AcDbEntity
  8
1
  6
Continuous
 62
     3
100
AcDbCircle
 10
25.9999999999999
 20
27.0
 30
0.0
 40
2.0
100
AcDbArc
 50
0.0
 51
90.0
  0
CIRCLE
  5
46F
102
{ACAD_REACTORS
330
478
102
}
330
1F
100
AcDbEntity
  8
1
  6
Continuous
 62
     3
100
AcDbCircle
 10
84.185822778214
 20
101.832550506661
 30
0.0
 40
0.7146114590486974
  0
CIRCLE
  5
470
330
1F
100
AcDbEntity
  8
1
  6
Continuous
 62
     3
100
AcDbCircle
 10
0.0
 20
101.000000000001
 30
0.0
 40
8.5
  0
CIRCLE
  5
471
330
1F
100
AcDbEntity
  8
1
  6
Continuous
 62
     3
100
AcDbCircle
 10
-86.8964356480983
 20
0.0
 30
0.0
 40
12.4999999999999
  0
CIRCLE
  5
472
330
1F
100
AcDbEntity
  8
1
  6
Continuous
 62
     3
100
AcDbCircle
 10
-86.8964356480983
 20
0.0
 30
0.0
 40
21.0
  0
CIRCLE
  5
473
330
1F
100
AcDbEntity
  8
1
  6
Continuous
 62
     3
100
AcDbCircle
 10
-86.8964356480983
 20
0.0
 30
0.0
 40
17.0
  0
CIRCLE
  5
474
330
1F
100
AcDbEntity
  8
1
  6
Continuous
 62
     3
100
AcDbCircle
 10
-86.8964356480983
 20
0.0
 30
0.0
 40
15.1235267601448
  0
LWPOLYLINE
  5
475
330
1F
100
AcDbEntity
  8
1
  6
Continuous
 62
     3
 60
     1
100
AcDbPolyline
 90
        4
 70
     0
 43
0.0
 10
-2.540707856479
 20
-28.0
 10
6.0
 20
-28.0
 10
6.86515985622322
 20
-28.498497821936
 10
7.7320508075689
 20
-29.0
  0
LWPOLYLINE
  5
476
330
1F
100
AcDbEntity
  8
1
  6
Continuous
 62
     3
 60
     1
100
AcDbPolyline
 90
        2
 70
     0
 43
0.0
 10
24.1999999999999
 20
-29.0
 10
24.0
 20
-28.7
  0
LWPOLYLINE
  5
477
330
1F
100
AcDbEntity
  8
1
  6
Continuous
 62
     3
 60
     1
100
AcDbPolyline
 90
        7
 70
     0
 43
0.0
 10
7.60462800782199
 20
-23.5
 10
0.0
 20
-23.5
 10
-5.38882638000557
 20
-22.8737961485661
 10
-10.9783245429395
 20
-20.7780266202037
 10
-13.0
 20
-19.25
 10
-20.0
 20
-19.25
 10
-20.0
 20
-12.5000000000001
  0
HATCH
  5
478
330
1F
100
AcDbEntity
  8
1
  6
Continuous
 62
     4
100
AcDbHatch
 10
0.0
 20
0.0
 30
0.0
210
0.0
220
0.0
230
1.0
  2
_USER
 70
     0
 71
     1
 91
        1
 92
        1
 93
        1
 72
     2
 10
84.185822778214
 20
101.832550506661
 40
0.7146114590486974
 50
0.0
 51
360.0
 73
     1
 97
        1
330
46F
 75
     1
 76
     0
 52
90.00000000000001
 41
0.15
 77
     0
 78
     1
 53
90.00000000000001
 43
0.0
 44
0.0
 45
-0.15
 46
-0.0000000000000001
 79
     0
 98
        1
 10
0.0
 20
0.0
  0
HATCH
  5
479
330
1F
100
AcDbEntity
  8
1
  6
Continuous
 62
     4
100
AcDbHatch
 10
0.0
 20
0.0
 30
0.0
210
0.0
220
0.0
230
1.0
  2
_USER
 70
     0
 71
     1
 91
        1
 92
        1
 93
       10
 72
     1
 10
49.5000000000001
 20
103.668976325122
 11
48.9127849532708
 21
102.374430771305
 72
     1
 10
48.9127849532708
 20
102.374430771305
 11
49.390407344934
 21
102.374430771305
 72
     2
 10
40.5878467128701
 20
101.059862976015
 40
8.90017764820307
 50
351.5062631435095
 51
369.9604105406121
 73
     0
 72
     1
 10
49.3538764599121
 20
99.5204200106706
 11
48.9127849532708
 21
99.5204200106706
 72
     1
 10
48.9127849532708
 20
99.5204200106706
 11
49.5000000000001
 21
98.2258744568536
 72
     1
 10
49.5000000000001
 20
98.2258744568536
 11
50.0411834017258
 21
99.5204200106706
 72
     1
 10
50.0411834017258
 20
99.5204200106706
 11
49.5426004358603
 21
99.5204200106706
 72
     2
 10
40.7765706888184
 20
101.059862976015
 40
8.900177648202972
 50
350.0395894593878
 51
368.4937368564904
 73
     1
 72
     1
 10
49.5791313208823
 20
102.374430771305
 11
50.0411834017258
 21
102.374430771305
 72
     1
 10
50.0411834017258
 20
102.374430771305
 11
49.5000000000001
 21
103.668976325122
 97
       10
330
149
330
14A
330
3F8
330
14E
330
14C
330
14B
330
14D
330
3F9
330
14F
330
148
 75
     1
 76
     0
 52
90.00000000000001
 41
0.15
 77
     0
 78
     1
 53
90.00000000000001
 43
0.0
 44
0.0
 45
-0.15
 46
-0.0000000000000001
 79
     0
 98
        1
 10
0.0
 20
0.0
  0
HATCH
  5
47A
330
1F
100
AcDbEntity
  8
1
  6
Continuous
 62
     4
100
AcDbHatch
 10
0.0
 20
0.0
 30
0.0
210
0.0
220
0.0
230
1.0
  2
_USER
 70
     0
 71
     1
 91
        1
 92
        1
 93
        4
 72
     1
 10
84.6332992923414
 20
100.494882608315
 11
84.6332992923414
 21
98.6000000000003
 72
     1
 10
84.6332992923414
 20
98.6000000000003
 11
83.7374692403324
 21
98.6000000000003
 72
     1
 10
83.7374692403324
 20
98.6000000000003
 11
83.7374692403324
 21
100.494882608315
 72
     1
 10
83.7374692403324
 20
100.494882608315
 11
84.6332992923414
 21
100.494882608315
 97
        4
330
109
330
147
330
10A
330
10B
 75
     1
 76
     0
 52
90.00000000000001
 41
0.15
 77
     0
 78
     1
 53
90.00000000000001
 43
0.0
 44
0.0
 45
-0.15
 46
-0.0000000000000001
 79
     0
 98
        1
 10
0.0
 20
0.0
  0
HATCH
  5
47B
330
1F
100
AcDbEntity
  8
1
  6
Continuous
 62
     4
100
AcDbHatch
 10
0.0
 20
0.0
 30
0.0
210
0.0
220
0.0
230
1.0
  2
_USER
 70
     0
 71
     1
 91
        2
 92
        1
 93
        8
 72
     1
 10
81.7007929951017
 20
101.035585804018
 11
80.3061917310122
 21
101.035585804018
 72
     1
 10
80.3061917310122
 20
101.035585804018
 11
78.7230609584011
 21
98.6000000000003
 72
     1
 10
78.7230609584011
 20
98.6000000000003
 11
79.4099439778205
 21
98.6000000000003
 72
     1
 10
79.4099439778205
 20
98.6000000000003
 11
79.7390185860649
 21
99.0871171608036
 72
     1
 10
79.7390185860649
 20
99.0871171608036
 11
81.8275999775149
 21
99.0871171608036
 72
     1
 10
81.8275999775149
 20
99.0871171608036
 11
82.1202810489663
 21
98.6000000000003
 72
     1
 10
82.1202810489663
 20
98.6000000000003
 11
83.1621444775123
 21
98.6000000000003
 72
     1
 10
83.1621444775123
 20
98.6000000000003
 11
81.7007929951017
 21
101.035585804018
 97
        8
330
111
330
110
330
10D
330
116
330
114
330
112
330
113
330
10C
 92
       16
 93
        3
 72
     1
 10
80.0269588682789
 20
99.5133446765065
 11
81.5715040399948
 21
99.5133446765065
 72
     1
 10
81.5715040399948
 20
99.5133446765065
 11
80.84443527243
 21
100.723425232822
 72
     1
 10
80.84443527243
 20
100.723425232822
 11
80.0269588682789
 21
99.5133446765065
 97
        3
330
10F
330
10E
330
115
 75
     1
 76
     0
 52
90.00000000000001
 41
0.15
 77
     0
 78
     1
 53
90.00000000000001
 43
0.0
 44
0.0
 45
-0.15
 46
-0.0000000000000001
 79
     0
 98
        1
 10
0.0
 20
0.0
  0
HATCH
  5
47C
330
1F
100
AcDbEntity
  8
1
  6
Continuous
 62
     4
100
AcDbHatch
 10
0.0
 20
0.0
 30
0.0
210
0.0
220
0.0
230
1.0
  2
_USER
 70
     0
 71
     1
 91
        1
 92
        1
 93
       13
 72
     1
 10
76.6352349655552
 20
101.035585804018
 11
75.9548209777483
 21
99.5133446765065
 72
     1
 10
75.9548209777483
 20
99.5133446765065
 11
75.2205128126919
 21
101.035585804018
 72
     1
 10
75.2205128126919
 20
101.035585804018
 11
73.7228064499646
 21
101.035585804018
 72
     1
 10
73.7228064499646
 20
101.035585804018
 11
73.7228064499646
 21
98.6000000000003
 72
     1
 10
73.7228064499646
 20
98.6000000000003
 11
74.3892385013706
 21
98.6000000000003
 72
     1
 10
74.3892385013706
 20
98.6000000000003
 11
74.3892385013706
 21
100.365799707913
 72
     1
 10
74.3892385013706
 20
100.365799707913
 11
75.3500108607907
 21
98.6000000000003
 72
     1
 10
75.3500108607907
 20
98.6000000000003
 11
76.2534501484657
 21
98.6000000000003
 72
     1
 10
76.2534501484657
 20
98.6000000000003
 11
77.1505878406894
 21
100.365799707913
 72
     1
 10
77.1505878406894
 20
100.365799707913
 11
77.1505878406894
 21
98.6000000000003
 72
     1
 10
77.1505878406894
 20
98.6000000000003
 11
78.182357762698
 21
98.6000000000003
 72
     1
 10
78.182357762698
 20
98.6000000000003
 11
78.182357762698
 21
101.035585804018
 72
     1
 10
78.182357762698
 20
101.035585804018
 11
76.6352349655552
 21
101.035585804018
 97
       13
330
118
330
12D
330
12C
330
141
330
142
330
143
330
12E
330
11E
330
120
330
11F
330
144
330
145
330
146
 75
     1
 76
     0
 52
90.00000000000001
 41
0.15
 77
     0
 78
     1
 53
90.00000000000001
 43
0.0
 44
0.0
 45
-0.15
 46
-0.0000000000000001
 79
     0
 98
        1
 10
0.0
 20
0.0
  0
HATCH
  5
47D
330
1F
100
AcDbEntity
  8
1
  6
Continuous
 62
     4
100
AcDbHatch
 10
0.0
 20
0.0
 30
0.0
210
0.0
220
0.0
230
1.0
  2
_USER
 70
     0
 71
     1
 91
        2
 92
        1
 93
        8
 72
     1
 10
71.7148911986305
 20
101.035585804018
 11
70.3202899345411
 21
101.035585804018
 72
     1
 10
70.3202899345411
 20
101.035585804018
 11
68.73715916193
 21
98.6000000000003
 72
     1
 10
68.73715916193
 20
98.6000000000003
 11
69.4240421813494
 21
98.6000000000003
 72
     1
 10
69.4240421813494
 20
98.6000000000003
 11
69.7531167895938
 21
99.0871171608036
 72
     1
 10
69.7531167895938
 20
99.0871171608036
 11
71.8416981810437
 21
99.0871171608036
 72
     1
 10
71.8416981810437
 20
99.0871171608036
 11
72.1343792524951
 21
98.6000000000003
 72
     1
 10
72.1343792524951
 20
98.6000000000003
 11
73.176242681041
 21
98.6000000000003
 72
     1
 10
73.176242681041
 20
98.6000000000003
 11
71.7148911986305
 21
101.035585804018
 97
        8
330
11D
330
11C
330
119
330
140
330
129
330
127
330
128
330
117
 92
       16
 93
        3
 72
     1
 10
70.0410570718078
 20
99.5133446765065
 11
71.5856022435237
 21
99.5133446765065
 72
     1
 10
71.5856022435237
 20
99.5133446765065
 11
70.8585334759589
 21
100.723425232822
 72
     1
 10
70.8585334759589
 20
100.723425232822
 11
70.0410570718078
 21
99.5133446765065
 97
        3
330
11B
330
11A
330
13F
 75
     1
 76
     0
 52
90.00000000000001
 41
0.15
 77
     0
 78
     1
 53
90.00000000000001
 43
0.0
 44
0.0
 45
-0.15
 46
-0.0000000000000001
 79
     0
 98
        1
 10
0.0
 20
0.0
  0
HATCH
  5
47E
330
1F
100
AcDbEntity
  8
1
  6
Continuous
 62
     4
100
AcDbHatch
 10
0.0
 20
0.0
 30
0.0
210
0.0
220
0.0
230
1.0
  2
_USER
 70
     0
 71
     1
 91
        1
 92
        1
 93
        4
 72
     1
 10
62.4573352000001
 20
103.926668000001
 11
60.7557607
 21
103.926668000001
 72
     1
 10
60.7557607
 20
103.926668000001
 11
60.7557607
 21
98.6000000000005
 72
     1
 10
60.7557607
 20
98.6000000000005
 11
62.4573352000001
 21
98.6000000000005
 72
     1
 10
62.4573352000001
 20
98.6000000000005
 11
62.4573352000001
 21
103.926668000001
 97
        4
330
12A
330
12F
330
12B
330
121
 75
     1
 76
     0
 52
90.00000000000001
 41
0.15
 77
     0
 78
     1
 53
90.00000000000001
 43
0.0
 44
0.0
 45
-0.15
 46
-0.0000000000000001
 79
     0
 98
        1
 10
0.0
 20
0.0
  0
HATCH
  5
47F
330
1F
100
AcDbEntity
  8
1
  6
Continuous
 62
     4
100
AcDbHatch
 10
0.0
 20
0.0
 30
0.0
210
0.0
220
0.0
230
1.0
  2
_USER
 70
     0
 71
     1
 91
        1
 92
        1
 93
        4
 72
     1
 10
56.7015745000001
 20
98.6000000000005
 11
55.0000000000001
 21
98.6000000000007
 72
     1
 10
55.0000000000001
 20
98.6000000000007
 11
55.0000000000001
 21
103.926668000001
 72
     1
 10
55.0000000000001
 20
103.926668000001
 11
56.7015745000001
 21
103.926668000001
 72
     1
 10
56.7015745000001
 20
103.926668000001
 11
56.7015745000001
 21
98.6000000000005
 97
        4
330
123
330
122
330
124
330
130
 75
     1
 76
     0
 52
90.00000000000001
 41
0.15
 77
     0
 78
     1
 53
90.00000000000001
 43
0.0
 44
0.0
 45
-0.15
 46
-0.0000000000000001
 79
     0
 98
        1
 10
0.0
 20
0.0
  0
HATCH
  5
480
330
1F
100
AcDbEntity
  8
1
  6
Continuous
 62
     4
100
AcDbHatch
 10
0.0
 20
0.0
 30
0.0
210
0.0
220
0.0
230
1.0
  2
_USER
 70
     0
 71
     1
 91
        1
 92
        1
 93
       12
 72
     1
 10
65.5568114770089
 20
101.035585804018
 11
64.5000000000001
 21
101.035585804018
 72
     1
 10
64.5000000000001
 20
101.035585804018
 11
64.5000000000001
 21
98.6000000000006
 72
     1
 10
64.5000000000001
 20
98.6000000000006
 11
65.5568114770089
 21
98.6000000000003
 72
     1
 10
65.5568114770089
 20
98.6000000000003
 11
65.5568114770089
 21
99.5992014365065
 72
     1
 10
65.5568114770089
 20
99.5992014365065
 11
67.2183465192183
 21
99.5992014365065
 72
     1
 10
67.2183465192183
 20
99.5992014365065
 11
67.2183465192183
 21
98.6000000000003
 72
     1
 10
67.2183465192183
 20
98.6000000000003
 11
68.2751579962268
 21
98.6000000000003
 72
     1
 10
68.2751579962268
 20
98.6000000000003
 11
68.2751579962268
 21
101.035585804018
 72
     1
 10
68.2751579962268
 20
101.035585804018
 11
67.2183465192183
 21
101.035585804018
 72
     1
 10
67.2183465192183
 20
101.035585804018
 11
67.2183465192183
 21
100.036384367511
 72
     1
 10
67.2183465192183
 20
100.036384367511
 11
65.5568114770089
 21
100.036384367511
 72
     1
 10
65.5568114770089
 20
100.036384367511
 11
65.5568114770089
 21
101.035585804018
 97
       12
330
136
330
125
330
137
330
13E
330
13A
330
139
330
138
330
126
330
135
330
13B
330
13C
330
13D
 75
     1
 76
     0
 52
90.00000000000001
 41
0.15
 77
     0
 78
     1
 53
90.00000000000001
 43
0.0
 44
0.0
 45
-0.15
 46
-0.0000000000000001
 79
     0
 98
        1
 10
0.0
 20
0.0
  0
HATCH
  5
481
330
1F
100
AcDbEntity
  8
1
  6
Continuous
 62
     4
100
AcDbHatch
 10
0.0
 20
0.0
 30
0.0
210
0.0
220
0.0
230
1.0
  2
_USER
 70
     0
 71
     1
 91
        1
 92
        1
 93
        4
 72
     1
 10
59.5794548499999
 20
98.6000000000005
 11
57.8778803500001
 21
98.6000000000005
 72
     1
 10
57.8778803500001
 20
98.6000000000005
 11
57.8778803500001
 21
103.926668000001
 72
     1
 10
57.8778803500001
 20
103.926668000001
 11
59.5794548499999
 21
103.926668000001
 72
     1
 10
59.5794548499999
 20
103.926668000001
 11
59.5794548499999
 21
98.6000000000005
 97
        4
330
134
330
132
330
133
330
131
 75
     1
 76
     0
 52
90.00000000000001
 41
0.15
 77
     0
 78
     1
 53
90.00000000000001
 43
0.0
 44
0.0
 45
-0.15
 46
-0.0000000000000001
 79
     0
 98
        1
 10
0.0
 20
0.0
  0
ENDSEC
  0
SECTION
  2
OBJECTS
  0
DICTIONARY
  5
C
330
0
100
AcDbDictionary
281
     1
  3
ACAD_GROUP
350
D
  3
ACAD_LAYOUT
350
1A
  3
ACAD_MATERIAL
350
43
  3
ACAD_MLEADERSTYLE
350
484
  3
ACAD_MLINESTYLE
350
17
  3
ACAD_PLOTSETTINGS
350
19
  3
ACAD_PLOTSTYLENAME
350
E
  3
ACAD_SCALELIST
350
47
  3
ACAD_VISUALSTYLE
350
2A
  3
AcDbVariableDictionary
350
482
  0
DICTIONARY
  5
D
102
{ACAD_REACTORS
330
C
102
}
330
C
100
AcDbDictionary
281
     1
  0
DICTIONARY
  5
1A
102
{ACAD_REACTORS
330
C
102
}
330
C
100
AcDbDictionary
281
     1
  3
Layout1
350
1E
  3
Layout2
350
26
  3
Model
350
22
  0
DICTIONARY
  5
43
102
{ACAD_REACTORS
330
C
102
}
330
C
100
AcDbDictionary
281
     1
  3
ByBlock
350
45
  3
ByLayer
350
44
  3
Global
350
46
  0
DICTIONARY
  5
484
102
{ACAD_REACTORS
330
C
102
}
330
C
100
AcDbDictionary
281
     1
  0
DICTIONARY
  5
17
102
{ACAD_REACTORS
330
C
102
}
330
C
100
AcDbDictionary
281
     1
  3
Standard
350
18
  0
DICTIONARY
  5
19
102
{ACAD_REACTORS
330
C
102
}
330
C
100
AcDbDictionary
281
     1
  0
ACDBDICTIONARYWDFLT
  5
E
102
{ACAD_REACTORS
330
C
102
}
330
C
100
AcDbDictionary
281
     1
  3
Normal
350
F
100
AcDbDictionaryWithDefault
340
F
  0
DICTIONARY
  5
47
102
{ACAD_REACTORS
330
C
102
}
330
C
100
AcDbDictionary
281
     1
  3
A0
350
48
  3
A1
350
49
  3
A2
350
4A
  3
A3
350
4B
  3
A4
350
4C
  3
A5
350
4D
  3
A6
350
4E
  3
A7
350
4F
  3
A8
350
50
  3
A9
350
51
  3
B0
350
52
  3
B1
350
53
  3
B2
350
54
  3
B3
350
55
  3
B4
350
56
  3
B5
350
57
  3
B6
350
58
  3
B7
350
59
  3
B8
350
5A
  3
B9
350
5B
  3
C0
350
5C
  3
C1
350
5D
  3
C2
350
5E
  3
C3
350
5F
  3
C4
350
60
  3
C5
350
61
  3
C6
350
62
  3
C7
350
63
  3
C8
350
64
  3
C9
350
65
  3
D0
350
66
  3
D1
350
67
  3
D2
350
68
  0
DICTIONARY
  5
2A
102
{ACAD_REACTORS
330
C
102
}
330
C
100
AcDbDictionary
281
     1
  3
2dWireframe
350
2F
  3
Basic
350
32
  3
Brighten
350
36
  3
ColorChange
350
3A
  3
Conceptual
350
34
  3
Dim
350
35
  3
EdgeColorOff
350
3D
  3
Facepattern
350
39
  3
Flat
350
2B
  3
FlatWithEdges
350
2C
  3
Gouraud
350
2D
  3
GouraudWithEdges
350
2E
  3
Hidden
350
31
  3
JitterOff
350
3B
  3
Linepattern
350
38
  3
OverhangOff
350
3C
  3
Realistic
350
33
  3
Shaded
350
42
  3
Shaded with edges
350
41
  3
Shades of Gray
350
3E
  3
Sketchy
350
3F
  3
Thicken
350
37
  3
Wireframe
350
30
  3
X-Ray
350
40
  0
DICTIONARY
  5
482
102
{ACAD_REACTORS
330
C
102
}
330
C
100
AcDbDictionary
281
     1
  3
CANNOSCALE
350
489
  3
DIMASSOC
350
487
  3
HIDETEXT
350
488
  3
MSLTSCALE
350
48A
  0
LAYOUT
  5
1E
102
{ACAD_REACTORS
330
1A
102
}
330
1A
100
AcDbPlotSettings
  1

  2
none_device
  4

  6

 40
0.0
 41
0.0
 42
0.0
 43
0.0
 44
0.0
 45
0.0
 46
0.0
 47
0.0
 48
0.0
 49
0.0
140
0.0
141
0.0
142
1.0
143
1.0
 70
   688
 72
     0
 73
     0
 74
     5
  7

 75
    16
147
1.0
148
0.0
149
0.0
100
AcDbLayout
  1
Layout1
 70
     1
 71
     1
 10
0.0
 20
0.0
 11
12.0
 21
9.0
 12
0.0
 22
0.0
 32
0.0
 14
1.00000000000000E+20
 24
1.00000000000000E+20
 34
1.00000000000000E+20
 15
-1.00000000000000E+20
 25
-1.00000000000000E+20
 35
-1.00000000000000E+20
146
0.0
 13
0.0
 23
0.0
 33
0.0
 16
1.0
 26
0.0
 36
0.0
 17
0.0
 27
1.0
 37
0.0
 76
     0
330
1B
  0
LAYOUT
  5
26
102
{ACAD_REACTORS
330
1A
102
}
330
1A
100
AcDbPlotSettings
  1

  2
none_device
  4

  6

 40
0.0
 41
0.0
 42
0.0
 43
0.0
 44
0.0
 45
0.0
 46
0.0
 47
0.0
 48
0.0
 49
0.0
140
0.0
141
0.0
142
1.0
143
1.0
 70
   688
 72
     0
 73
     0
 74
     5
  7

 75
    16
147
1.0
148
0.0
149
0.0
100
AcDbLayout
  1
Layout2
 70
     1
 71
     2
 10
0.0
 20
0.0
 11
0.0
 21
0.0
 12
0.0
 22
0.0
 32
0.0
 14
0.0
 24
0.0
 34
0.0
 15
0.0
 25
0.0
 35
0.0
146
0.0
 13
0.0
 23
0.0
 33
0.0
 16
1.0
 26
0.0
 36
0.0
 17
0.0
 27
1.0
 37
0.0
 76
     0
330
23
  0
LAYOUT
  5
22
102
{ACAD_REACTORS
330
1A
102
}
330
1A
100
AcDbPlotSettings
  1

  2
none_device
  4
Letter_(8.50_x_11.00_Inches)
  6

 40
6.35
 41
6.35
 42
6.35000508
 43
6.35000508
 44
215.9
 45
279.4
 46
0.0
 47
0.0
 48
0.0
 49
0.0
140
0.0
141
0.0
142
1.0
143
1.0
 70
  1712
 72
     0
 73
     0
 74
     0
  7

 75
     0
147
1.0
148
0.0
149
0.0
100
AcDbLayout
  1
Model
 70
     1
 71
     0
 10
0.0
 20
0.0
 11
12.0
 21
9.0
 12
0.0
 22
0.0
 32
0.0
 14
-119.197552317643
 24
-42.9874825390125
 34
0.0
 15
125.342699305996
 25
130.715636021843
 35
0.0
146
0.0
 13
0.0
 23
0.0
 33
0.0
 16
1.0
 26
0.0
 36
0.0
 17
0.0
 27
1.0
 37
0.0
 76
     0
330
1F
331
29
  0
MATERIAL
  5
45
102
{ACAD_REACTORS
330
43
102
}
102
{ACAD_XDICTIONARY
360
4BD
102
}
330
43
100
AcDbMaterial
  1
ByBlock
  0
MATERIAL
  5
44
102
{ACAD_REACTORS
330
43
102
}
102
{ACAD_XDICTIONARY
360
4BB
102
}
330
43
100
AcDbMaterial
  1
ByLayer
  0
MATERIAL
  5
46
102
{ACAD_REACTORS
330
43
102
}
102
{ACAD_XDICTIONARY
360
4BF
102
}
330
43
100
AcDbMaterial
  1
Global
  0
MLINESTYLE
  5
18
102
{ACAD_REACTORS
330
17
102
}
330
17
100
AcDbMlineStyle
  2
Standard
 70
     0
  3

 62
   256
 51
90.0
 52
90.0
 71
     2
 49
0.5
 62
   256
  6
BYLAYER
 49
-0.5
 62
   256
  6
BYLAYER
  0
ACDBPLACEHOLDER
  5
F
102
{ACAD_REACTORS
330
E
102
}
330
E
  0
SCALE
  5
48
102
{ACAD_REACTORS
330
47
102
}
330
47
100
AcDbScale
 70
     0
300
1:1
140
1.0
141
1.0
290
     1
  0
SCALE
  5
49
102
{ACAD_REACTORS
330
47
102
}
330
47
100
AcDbScale
 70
     0
300
1:2
140
1.0
141
2.0
290
     0
  0
SCALE
  5
4A
102
{ACAD_REACTORS
330
47
102
}
330
47
100
AcDbScale
 70
     0
300
1:4
140
1.0
141
4.0
290
     0
  0
SCALE
  5
4B
102
{ACAD_REACTORS
330
47
102
}
330
47
100
AcDbScale
 70
     0
300
1:5
140
1.0
141
5.0
290
     0
  0
SCALE
  5
4C
102
{ACAD_REACTORS
330
47
102
}
330
47
100
AcDbScale
 70
     0
300
1:8
140
1.0
141
8.0
290
     0
  0
SCALE
  5
4D
102
{ACAD_REACTORS
330
47
102
}
330
47
100
AcDbScale
 70
     0
300
1:10
140
1.0
141
10.0
290
     0
  0
SCALE
  5
4E
102
{ACAD_REACTORS
330
47
102
}
330
47
100
AcDbScale
 70
     0
300
1:16
140
1.0
141
16.0
290
     0
  0
SCALE
  5
4F
102
{ACAD_REACTORS
330
47
102
}
330
47
100
AcDbScale
 70
     0
300
1:20
140
1.0
141
20.0
290
     0
  0
SCALE
  5
50
102
{ACAD_REACTORS
330
47
102
}
330
47
100
AcDbScale
 70
     0
300
1:30
140
1.0
141
30.0
290
     0
  0
SCALE
  5
51
102
{ACAD_REACTORS
330
47
102
}
330
47
100
AcDbScale
 70
     0
300
1:40
140
1.0
141
40.0
290
     0
  0
SCALE
  5
52
102
{ACAD_REACTORS
330
47
102
}
330
47
100
AcDbScale
 70
     0
300
1:50
140
1.0
141
50.0
290
     0
  0
SCALE
  5
53
102
{ACAD_REACTORS
330
47
102
}
330
47
100
AcDbScale
 70
     0
300
1:100
140
1.0
141
100.0
290
     0
  0
SCALE
  5
54
102
{ACAD_REACTORS
330
47
102
}
330
47
100
AcDbScale
 70
     0
300
2:1
140
2.0
141
1.0
290
     0
  0
SCALE
  5
55
102
{ACAD_REACTORS
330
47
102
}
330
47
100
AcDbScale
 70
     0
300
4:1
140
4.0
141
1.0
290
     0
  0
SCALE
  5
56
102
{ACAD_REACTORS
330
47
102
}
330
47
100
AcDbScale
 70
     0
300
8:1
140
8.0
141
1.0
290
     0
  0
SCALE
  5
57
102
{ACAD_REACTORS
330
47
102
}
330
47
100
AcDbScale
 70
     0
300
10:1
140
10.0
141
1.0
290
     0
  0
SCALE
  5
58
102
{ACAD_REACTORS
330
47
102
}
330
47
100
AcDbScale
 70
     0
300
100:1
140
100.0
141
1.0
290
     0
  0
SCALE
  5
59
102
{ACAD_REACTORS
330
47
102
}
330
47
100
AcDbScale
 70
     0
300
1/128" = 1'-0"
140
0.0078125
141
12.0
290
     0
  0
SCALE
  5
5A
102
{ACAD_REACTORS
330
47
102
}
330
47
100
AcDbScale
 70
     0
300
1/64" = 1'-0"
140
0.015625
141
12.0
290
     0
  0
SCALE
  5
5B
102
{ACAD_REACTORS
330
47
102
}
330
47
100
AcDbScale
 70
     0
300
1/32" = 1'-0"
140
0.03125
141
12.0
290
     0
  0
SCALE
  5
5C
102
{ACAD_REACTORS
330
47
102
}
330
47
100
AcDbScale
 70
     0
300
1/16" = 1'-0"
140
0.0625
141
12.0
290
     0
  0
SCALE
  5
5D
102
{ACAD_REACTORS
330
47
102
}
330
47
100
AcDbScale
 70
     0
300
3/32" = 1'-0"
140
0.09375
141
12.0
290
     0
  0
SCALE
  5
5E
102
{ACAD_REACTORS
330
47
102
}
330
47
100
AcDbScale
 70
     0
300
1/8" = 1'-0"
140
0.125
141
12.0
290
     0
  0
SCALE
  5
5F
102
{ACAD_REACTORS
330
47
102
}
330
47
100
AcDbScale
 70
     0
300
3/16" = 1'-0"
140
0.1875
141
12.0
290
     0
  0
SCALE
  5
60
102
{ACAD_REACTORS
330
47
102
}
330
47
100
AcDbScale
 70
     0
300
1/4" = 1'-0"
140
0.25
141
12.0
290
     0
  0
SCALE
  5
61
102
{ACAD_REACTORS
330
47
102
}
330
47
100
AcDbScale
 70
     0
300
3/8" = 1'-0"
140
0.375
141
12.0
290
     0
  0
SCALE
  5
62
102
{ACAD_REACTORS
330
47
102
}
330
47
100
AcDbScale
 70
     0
300
1/2" = 1'-0"
140
0.5
141
12.0
290
     0
  0
SCALE
  5
63
102
{ACAD_REACTORS
330
47
102
}
330
47
100
AcDbScale
 70
     0
300
3/4" = 1'-0"
140
0.75
141
12.0
290
     0
  0
SCALE
  5
64
102
{ACAD_REACTORS
330
47
102
}
330
47
100
AcDbScale
 70
     0
300
1" = 1'-0"
140
1.0
141
12.0
290
     0
  0
SCALE
  5
65
102
{ACAD_REACTORS
330
47
102
}
330
47
100
AcDbScale
 70
     0
300
1-1/2" = 1'-0"
140
1.5
141
12.0
290
     0
  0
SCALE
  5
66
102
{ACAD_REACTORS
330
47
102
}
330
47
100
AcDbScale
 70
     0
300
3" = 1'-0"
140
3.0
141
12.0
290
     0
  0
SCALE
  5
67
102
{ACAD_REACTORS
330
47
102
}
330
47
100
AcDbScale
 70
     0
300
6" = 1'-0"
140
6.0
141
12.0
290
     0
  0
SCALE
  5
68
102
{ACAD_REACTORS
330
47
102
}
330
47
100
AcDbScale
 70
     0
300
1'-0" = 1'-0"
140
12.0
141
12.0
290
     0
  0
VISUALSTYLE
  5
2F
102
{ACAD_REACTORS
330
2A
102
}
102
{ACAD_XDICTIONARY
360
493
102
}
330
2A
100
AcDbVisualStyle
  2
2dWireframe
 70
     4
 71
     0
 72
     2
 73
     0
 90
        0
 40
0.6
 41
30.0
 62
     5
 63
     7
 74
     1
 91
        4
 64
     7
 65
   257
 75
     1
175
     1
 42
1.0
 92
        0
 66
   257
 43
1.0
 76
     1
 77
     6
 78
     2
 67
     7
 79
     5
170
     0
171
     0
290
     0
174
     0
 93
        1
 44
0.0
173
     0
291
     0
 45
0.0
1001
ACAD
1000
AcDbSavedByObjectVersion
1070
     0
  0
VISUALSTYLE
  5
32
102
{ACAD_REACTORS
330
2A
102
}
102
{ACAD_XDICTIONARY
360
499
102
}
330
2A
100
AcDbVisualStyle
  2
Basic
 70
     7
 71
     1
 72
     0
 73
     1
 90
        0
 40
0.6
 41
30.0
 62
     5
 63
     7
 74
     0
 91
        4
 64
     7
 65
   257
 75
     1
175
     1
 42
1.0
 92
        8
 66
     7
 43
1.0
 76
     1
 77
     6
 78
     2
 67
     7
 79
     5
170
     0
171
     0
290
     0
174
     0
 93
        1
 44
0.0
173
     0
291
     1
 45
0.0
1001
ACAD
1000
AcDbSavedByObjectVersion
1070
     0
  0
VISUALSTYLE
  5
36
102
{ACAD_REACTORS
330
2A
102
}
102
{ACAD_XDICTIONARY
360
4A1
102
}
330
2A
100
AcDbVisualStyle
  2
Brighten
 70
    12
 71
     2
 72
     2
 73
     0
 90
        0
 40
0.6
 41
30.0
 62
     5
 63
     7
 74
     1
 91
        4
 64
     7
 65
   257
 75
     1
175
     1
 42
1.0
 92
        8
 66
     7
 43
1.0
 76
     1
 77
     6
 78
     2
 67
     7
 79
     5
170
     0
171
     0
290
     0
174
     0
 93
        1
 44
50.0
173
     0
291
     1
 45
0.0
1001
ACAD
1000
AcDbSavedByObjectVersion
1070
     0
  0
VISUALSTYLE
  5
3A
102
{ACAD_REACTORS
330
2A
102
}
102
{ACAD_XDICTIONARY
360
4A9
102
}
330
2A
100
AcDbVisualStyle
  2
ColorChange
 70
    16
 71
     2
 72
     2
 73
     3
 90
        0
 40
0.6
 41
30.0
 62
     5
 63
     8
 74
     1
 91
        4
 64
     7
 65
   257
 75
     1
175
     1
 42
1.0
 92
        8
 66
     8
 43
1.0
 76
     1
 77
     6
 78
     2
 67
     7
 79
     5
170
     0
171
     0
290
     0
174
     0
 93
        1
 44
0.0
173
     0
291
     1
 45
0.0
1001
ACAD
1000
AcDbSavedByObjectVersion
1070
     0
  0
VISUALSTYLE
  5
34
102
{ACAD_REACTORS
330
2A
102
}
102
{ACAD_XDICTIONARY
360
49D
102
}
330
2A
100
AcDbVisualStyle
  2
Conceptual
 70
     9
 71
     3
 72
     2
 73
     0
 90
        0
 40
0.6
 41
30.0
 62
     5
 63
     7
 74
     2
 91
        2
 64
     7
 65
   257
 75
     1
175
     1
 42
179.0
 92
        8
 66
     7
 43
1.0
 76
     1
 77
     6
 78
     2
 67
     7
 79
     3
170
     0
171
     0
290
     0
174
     0
 93
        1
 44
0.0
173
     0
291
     0
 45
0.0
1001
ACAD
1000
AcDbSavedByObjectVersion
1070
     0
  0
VISUALSTYLE
  5
35
102
{ACAD_REACTORS
330
2A
102
}
102
{ACAD_XDICTIONARY
360
49F
102
}
330
2A
100
AcDbVisualStyle
  2
Dim
 70
    11
 71
     2
 72
     2
 73
     0
 90
        0
 40
0.6
 41
30.0
 62
     5
 63
     7
 74
     1
 91
        4
 64
     7
 65
   257
 75
     1
175
     1
 42
1.0
 92
        8
 66
     7
 43
1.0
 76
     1
 77
     6
 78
     2
 67
     7
 79
     5
170
     0
171
     0
290
     0
174
     0
 93
        1
 44
-50.0
173
     0
291
     1
 45
0.0
1001
ACAD
1000
AcDbSavedByObjectVersion
1070
     0
  0
VISUALSTYLE
  5
3D
102
{ACAD_REACTORS
330
2A
102
}
102
{ACAD_XDICTIONARY
360
4AF
102
}
330
2A
100
AcDbVisualStyle
  2
EdgeColorOff
 70
    22
 71
     2
 72
     2
 73
     0
 90
        0
 40
0.6
 41
30.0
 62
     5
 63
     7
 74
     1
 91
        4
 64
     7
 65
   257
 75
     1
175
     1
 42
1.0
 92
        8
 66
     7
 43
1.0
 76
     1
 77
     6
 78
     2
 67
     7
 79
     5
170
     0
171
     0
290
     0
174
     0
 93
        1
 44
0.0
173
     0
291
     1
 45
0.0
1001
ACAD
1000
AcDbSavedByObjectVersion
1070
     0
  0
VISUALSTYLE
  5
39
102
{ACAD_REACTORS
330
2A
102
}
102
{ACAD_XDICTIONARY
360
4A7
102
}
330
2A
100
AcDbVisualStyle
  2
Facepattern
 70
    15
 71
     2
 72
     2
 73
     0
 90
        0
 40
0.6
 41
30.0
 62
     5
 63
     7
 74
     1
 91
        4
 64
     7
 65
   257
 75
     1
175
     1
 42
1.0
 92
        8
 66
     7
 43
1.0
 76
     1
 77
     6
 78
     2
 67
     7
 79
     5
170
     0
171
     0
290
     0
174
     0
 93
        1
 44
0.0
173
     0
291
     1
 45
0.0
1001
ACAD
1000
AcDbSavedByObjectVersion
1070
     0
  0
VISUALSTYLE
  5
2B
102
{ACAD_REACTORS
330
2A
102
}
102
{ACAD_XDICTIONARY
360
48B
102
}
330
2A
100
AcDbVisualStyle
  2
Flat
 70
     0
 71
     2
 72
     1
 73
     1
 90
        2
 40
0.6
 41
30.0
 62
     5
 63
     7
 74
     0
 91
        0
 64
     7
 65
   257
 75
     1
175
     1
 42
1.0
 92
        8
 66
     7
 43
1.0
 76
     1
 77
     6
 78
     2
 67
     7
 79
     5
170
     0
171
     0
290
     0
174
     0
 93
       13
 44
0.0
173
     0
291
     1
 45
0.0
1001
ACAD
1000
AcDbSavedByObjectVersion
1070
     0
  0
VISUALSTYLE
  5
2C
102
{ACAD_REACTORS
330
2A
102
}
102
{ACAD_XDICTIONARY
360
48D
102
}
330
2A
100
AcDbVisualStyle
  2
FlatWithEdges
 70
     1
 71
     2
 72
     1
 73
     1
 90
        2
 40
0.6
 41
30.0
 62
     5
 63
     7
 74
     1
 91
        0
 64
     7
 65
   257
 75
     1
175
     1
 42
1.0
 92
        0
 66
   257
 43
1.0
 76
     1
 77
     6
 78
     2
 67
     7
 79
     5
170
     0
171
     0
290
     0
174
     0
 93
       13
 44
0.0
173
     0
291
     1
 45
0.0
1001
ACAD
1000
AcDbSavedByObjectVersion
1070
     0
  0
VISUALSTYLE
  5
2D
102
{ACAD_REACTORS
330
2A
102
}
102
{ACAD_XDICTIONARY
360
48F
102
}
330
2A
100
AcDbVisualStyle
  2
Gouraud
 70
     2
 71
     2
 72
     2
 73
     1
 90
        2
 40
0.6
 41
30.0
 62
     5
 63
     7
 74
     0
 91
        0
 64
     7
 65
   257
 75
     1
175
     1
 42
1.0
 92
        0
 66
     7
 43
1.0
 76
     1
 77
     6
 78
     2
 67
     7
 79
     5
170
     0
171
     0
290
     0
174
     0
 93
       13
 44
0.0
173
     0
291
     1
 45
0.0
1001
ACAD
1000
AcDbSavedByObjectVersion
1070
     0
  0
VISUALSTYLE
  5
2E
102
{ACAD_REACTORS
330
2A
102
}
102
{ACAD_XDICTIONARY
360
491
102
}
330
2A
100
AcDbVisualStyle
  2
GouraudWithEdges
 70
     3
 71
     2
 72
     2
 73
     1
 90
        2
 40
0.6
 41
30.0
 62
     5
 63
     7
 74
     1
 91
        0
 64
     7
 65
   257
 75
     1
175
     1
 42
1.0
 92
        0
 66
   257
 43
1.0
 76
     1
 77
     6
 78
     2
 67
     7
 79
     5
170
     0
171
     0
290
     0
174
     0
 93
       13
 44
0.0
173
     0
291
     1
 45
0.0
1001
ACAD
1000
AcDbSavedByObjectVersion
1070
     0
  0
VISUALSTYLE
  5
31
102
{ACAD_REACTORS
330
2A
102
}
102
{ACAD_XDICTIONARY
360
497
102
}
330
2A
100
AcDbVisualStyle
  2
Hidden
 70
     6
 71
     1
 72
     2
 73
     2
 90
        0
 40
0.6
 41
30.0
 62
     5
 63
     7
 74
     2
 91
        2
 64
     7
 65
   257
 75
     2
175
     1
 42
40.0
 92
        0
 66
   257
 43
1.0
 76
     1
 77
     6
 78
     2
 67
     7
 79
     3
170
     0
171
     0
290
     0
174
     0
 93
        1
 44
0.0
173
     0
291
     0
 45
0.0
1001
ACAD
1000
AcDbSavedByObjectVersion
1070
     0
  0
VISUALSTYLE
  5
3B
102
{ACAD_REACTORS
330
2A
102
}
102
{ACAD_XDICTIONARY
360
4AB
102
}
330
2A
100
AcDbVisualStyle
  2
JitterOff
 70
    20
 71
     2
 72
     2
 73
     0
 90
        0
 40
0.6
 41
30.0
 62
     5
 63
     7
 74
     1
 91
        4
 64
     7
 65
   257
 75
     1
175
     1
 42
1.0
 92
       10
 66
     7
 43
1.0
 76
     1
 77
     6
 78
     2
 67
     7
 79
     5
170
     0
171
     0
290
     0
174
     0
 93
        1
 44
0.0
173
     0
291
     1
 45
0.0
1001
ACAD
1000
AcDbSavedByObjectVersion
1070
     0
  0
VISUALSTYLE
  5
38
102
{ACAD_REACTORS
330
2A
102
}
102
{ACAD_XDICTIONARY
360
4A5
102
}
330
2A
100
AcDbVisualStyle
  2
Linepattern
 70
    14
 71
     2
 72
     2
 73
     0
 90
        0
 40
0.6
 41
30.0
 62
     5
 63
     7
 74
     1
 91
        4
 64
     7
 65
   257
 75
     7
175
     7
 42
1.0
 92
        8
 66
     7
 43
1.0
 76
     1
 77
     6
 78
     2
 67
     7
 79
     5
170
     0
171
     0
290
     0
174
     0
 93
        1
 44
0.0
173
     0
291
     1
 45
0.0
1001
ACAD
1000
AcDbSavedByObjectVersion
1070
     0
  0
VISUALSTYLE
  5
3C
102
{ACAD_REACTORS
330
2A
102
}
102
{ACAD_XDICTIONARY
360
4AD
102
}
330
2A
100
AcDbVisualStyle
  2
OverhangOff
 70
    21
 71
     2
 72
     2
 73
     0
 90
        0
 40
0.6
 41
30.0
 62
     5
 63
     7
 74
     1
 91
        4
 64
     7
 65
   257
 75
     1
175
     1
 42
1.0
 92
        9
 66
     7
 43
1.0
 76
     1
 77
     6
 78
     2
 67
     7
 79
     5
170
     0
171
     0
290
     0
174
     0
 93
        1
 44
0.0
173
     0
291
     1
 45
0.0
1001
ACAD
1000
AcDbSavedByObjectVersion
1070
     0
  0
VISUALSTYLE
  5
33
102
{ACAD_REACTORS
330
2A
102
}
102
{ACAD_XDICTIONARY
360
49B
102
}
330
2A
100
AcDbVisualStyle
  2
Realistic
 70
     8
 71
     2
 72
     3
 73
     0
 90
        2
 40
0.6
 41
30.0
 62
     5
 63
     7
 74
     0
 91
        0
 64
     7
 65
   257
 75
     1
175
     1
 42
1.0
 92
        8
 66
   257
 43
1.0
 76
     1
 77
     6
 78
     2
 67
     7
 79
     3
170
     0
171
     0
290
     0
174
     0
 93
       13
 44
0.0
173
     0
291
     0
 45
0.0
1001
ACAD
1000
AcDbSavedByObjectVersion
1070
     0
  0
VISUALSTYLE
  5
42
102
{ACAD_REACTORS
330
2A
102
}
102
{ACAD_XDICTIONARY
360
4B9
102
}
330
2A
100
AcDbVisualStyle
  2
Shaded
 70
    27
 71
     2
 72
     2
 73
     1
 90
        2
 40
0.6
 41
30.0
 62
     5
 63
     7
 74
     0
 91
        4
 64
     7
 65
   257
 75
     1
175
     1
 42
1.0
 92
        8
 66
   257
 43
1.0
 76
     1
 77
     6
 78
     2
 67
     8
 79
     3
170
     0
171
     0
290
     0
174
     0
 93
        5
 44
0.0
173
     0
291
     0
 45
0.0
1001
ACAD
1000
AcDbSavedByObjectVersion
1070
     0
  0
VISUALSTYLE
  5
41
102
{ACAD_REACTORS
330
2A
102
}
102
{ACAD_XDICTIONARY
360
4B7
102
}
330
2A
100
AcDbVisualStyle
  2
Shaded with edges
 70
    26
 71
     2
 72
     2
 73
     1
 90
        2
 40
0.6
 41
30.0
 62
     5
 63
     7
 74
     1
 91
       10
 64
     7
 65
   257
 75
     2
175
     1
 42
1.0
 92
        8
 66
   257
 43
1.0
 76
     1
 77
     6
 78
     2
 67
     7
 79
     3
170
     0
171
     0
290
     0
174
     0
 93
        5
 44
0.0
173
     0
291
     0
 45
0.0
1001
ACAD
1000
AcDbSavedByObjectVersion
1070
     0
  0
VISUALSTYLE
  5
3E
102
{ACAD_REACTORS
330
2A
102
}
102
{ACAD_XDICTIONARY
360
4B1
102
}
330
2A
100
AcDbVisualStyle
  2
Shades of Gray
 70
    23
 71
     2
 72
     2
 73
     3
 90
        0
 40
0.6
 41
30.0
 62
     5
 63
     7
 74
     2
 91
        2
 64
     7
 65
     7
 75
     1
175
     1
 42
40.0
 92
        8
 66
     7
 43
1.0
 76
     1
 77
     6
 78
     2
 67
     7
 79
     3
170
     0
171
     0
290
     0
174
     0
 93
        1
 44
0.0
173
     0
291
     0
 45
0.0
1001
ACAD
1000
AcDbSavedByObjectVersion
1070
     0
  0
VISUALSTYLE
  5
3F
102
{ACAD_REACTORS
330
2A
102
}
102
{ACAD_XDICTIONARY
360
4B3
102
}
330
2A
100
AcDbVisualStyle
  2
Sketchy
 70
    24
 71
     1
 72
     2
 73
     2
 90
        0
 40
0.6
 41
30.0
 62
     5
 63
     7
 74
     2
 91
        2
 64
     7
 65
     7
 75
     1
175
     1
 42
40.0
 92
       11
 66
     7
 43
1.0
 76
     1
 77
     6
 78
     2
 67
     7
 79
     6
170
     0
171
     0
290
     0
174
     0
 93
        1
 44
0.0
173
     0
291
     0
 45
0.0
1001
ACAD
1000
AcDbSavedByObjectVersion
1070
     0
  0
VISUALSTYLE
  5
37
102
{ACAD_REACTORS
330
2A
102
}
102
{ACAD_XDICTIONARY
360
4A3
102
}
330
2A
100
AcDbVisualStyle
  2
Thicken
 70
    13
 71
     2
 72
     2
 73
     0
 90
        0
 40
0.6
 41
30.0
 62
     5
 63
     7
 74
     1
 91
        4
 64
     7
 65
   257
 75
     1
175
     1
 42
1.0
 92
       12
 66
     7
 43
1.0
 76
     1
 77
     6
 78
     2
 67
     7
 79
     5
170
     0
171
     0
290
     0
174
     0
 93
        1
 44
0.0
173
     0
291
     1
 45
0.0
1001
ACAD
1000
AcDbSavedByObjectVersion
1070
     0
  0
VISUALSTYLE
  5
30
102
{ACAD_REACTORS
330
2A
102
}
102
{ACAD_XDICTIONARY
360
495
102
}
330
2A
100
AcDbVisualStyle
  2
Wireframe
 70
     5
 71
     0
 72
     2
 73
     0
 90
        0
 40
0.6
 41
30.0
 62
     5
 63
     7
 74
     1
 91
        4
 64
     7
 65
   257
 75
     1
175
     1
 42
1.0
 92
        0
 66
   257
 43
1.0
 76
     1
 77
     6
 78
     2
 67
     7
 79
     3
170
     0
171
     0
290
     0
174
     0
 93
        1
 44
0.0
173
     0
291
     0
 45
0.0
1001
ACAD
1000
AcDbSavedByObjectVersion
1070
     0
  0
VISUALSTYLE
  5
40
102
{ACAD_REACTORS
330
2A
102
}
102
{ACAD_XDICTIONARY
360
4B5
102
}
330
2A
100
AcDbVisualStyle
  2
X-Ray
 70
    25
 71
     2
 72
     2
 73
     1
 90
        1
 40
0.5
 41
30.0
 62
     5
 63
     7
 74
     1
 91
        0
 64
     7
 65
   257
 75
     1
175
     1
 42
1.0
 92
        8
 66
     7
 43
1.0
 76
     1
 77
     6
 78
     2
 67
     7
 79
     3
170
     0
171
     0
290
     0
174
     0
 93
       13
 44
0.0
173
     0
291
     0
 45
0.0
1001
ACAD
1000
AcDbSavedByObjectVersion
1070
     0
  0
DICTIONARYVAR
  5
489
102
{ACAD_REACTORS
330
482
102
}
330
482
100
DictionaryVariables
280
     0
  1
1:1
  0
DICTIONARYVAR
  5
487
102
{ACAD_REACTORS
330
482
102
}
330
482
100
DictionaryVariables
280
     0
  1
2
  0
DICTIONARYVAR
  5
488
102
{ACAD_REACTORS
330
482
102
}
330
482
100
DictionaryVariables
280
     0
  1
1
  0
DICTIONARYVAR
  5
48A
102
{ACAD_REACTORS
330
482
102
}
330
482
100
DictionaryVariables
280
     0
  1
1
  0
DICTIONARY
  5
4BD
330
45
100
AcDbDictionary
280
     1
281
     1
  3
ACAD_XREC_ROUNDTRIP
360
4BE
  0
DICTIONARY
  5
4BB
330
44
100
AcDbDictionary
280
     1
281
     1
  3
ACAD_XREC_ROUNDTRIP
360
4BC
  0
DICTIONARY
  5
4BF
330
46
100
AcDbDictionary
280
     1
281
     1
  3
ACAD_XREC_ROUNDTRIP
360
4C0
  0
DICTIONARY
  5
493
330
2F
100
AcDbDictionary
280
     1
281
     1
  3
ACAD_XREC_ROUNDTRIP
360
494
  0
DICTIONARY
  5
499
330
32
100
AcDbDictionary
280
     1
281
     1
  3
ACAD_XREC_ROUNDTRIP
360
49A
  0
DICTIONARY
  5
4A1
330
36
100
AcDbDictionary
280
     1
281
     1
  3
ACAD_XREC_ROUNDTRIP
360
4A2
  0
DICTIONARY
  5
4A9
330
3A
100
AcDbDictionary
280
     1
281
     1
  3
ACAD_XREC_ROUNDTRIP
360
4AA
  0
DICTIONARY
  5
49D
330
34
100
AcDbDictionary
280
     1
281
     1
  3
ACAD_XREC_ROUNDTRIP
360
49E
  0
DICTIONARY
  5
49F
330
35
100
AcDbDictionary
280
     1
281
     1
  3
ACAD_XREC_ROUNDTRIP
360
4A0
  0
DICTIONARY
  5
4AF
330
3D
100
AcDbDictionary
280
     1
281
     1
  3
ACAD_XREC_ROUNDTRIP
360
4B0
  0
DICTIONARY
  5
4A7
330
39
100
AcDbDictionary
280
     1
281
     1
  3
ACAD_XREC_ROUNDTRIP
360
4A8
  0
DICTIONARY
  5
48B
330
2B
100
AcDbDictionary
280
     1
281
     1
  3
ACAD_XREC_ROUNDTRIP
360
48C
  0
DICTIONARY
  5
48D
330
2C
100
AcDbDictionary
280
     1
281
     1
  3
ACAD_XREC_ROUNDTRIP
360
48E
  0
DICTIONARY
  5
48F
330
2D
100
AcDbDictionary
280
     1
281
     1
  3
ACAD_XREC_ROUNDTRIP
360
490
  0
DICTIONARY
  5
491
330
2E
100
AcDbDictionary
280
     1
281
     1
  3
ACAD_XREC_ROUNDTRIP
360
492
  0
DICTIONARY
  5
497
330
31
100
AcDbDictionary
280
     1
281
     1
  3
ACAD_XREC_ROUNDTRIP
360
498
  0
DICTIONARY
  5
4AB
330
3B
100
AcDbDictionary
280
     1
281
     1
  3
ACAD_XREC_ROUNDTRIP
360
4AC
  0
DICTIONARY
  5
4A5
330
38
100
AcDbDictionary
280
     1
281
     1
  3
ACAD_XREC_ROUNDTRIP
360
4A6
  0
DICTIONARY
  5
4AD
330
3C
100
AcDbDictionary
280
     1
281
     1
  3
ACAD_XREC_ROUNDTRIP
360
4AE
  0
DICTIONARY
  5
49B
330
33
100
AcDbDictionary
280
     1
281
     1
  3
ACAD_XREC_ROUNDTRIP
360
49C
  0
DICTIONARY
  5
4B9
330
42
100
AcDbDictionary
280
     1
281
     1
  3
ACAD_XREC_ROUNDTRIP
360
4BA
  0
DICTIONARY
  5
4B7
330
41
100
AcDbDictionary
280
     1
281
     1
  3
ACAD_XREC_ROUNDTRIP
360
4B8
  0
DICTIONARY
  5
4B1
330
3E
100
AcDbDictionary
280
     1
281
     1
  3
ACAD_XREC_ROUNDTRIP
360
4B2
  0
DICTIONARY
  5
4B3
330
3F
100
AcDbDictionary
280
     1
281
     1
  3
ACAD_XREC_ROUNDTRIP
360
4B4
  0
DICTIONARY
  5
4A3
330
37
100
AcDbDictionary
280
     1
281
     1
  3
ACAD_XREC_ROUNDTRIP
360
4A4
  0
DICTIONARY
  5
495
330
30
100
AcDbDictionary
280
     1
281
     1
  3
ACAD_XREC_ROUNDTRIP
360
496
  0
DICTIONARY
  5
4B5
330
40
100
AcDbDictionary
280
     1
281
     1
  3
ACAD_XREC_ROUNDTRIP
360
4B6
  0
XRECORD
  5
4BE
102
{ACAD_REACTORS
330
4BD
102
}
330
4BD
100
AcDbXrecord
280
     1
102
MATERIAL
148
0.0
149
0.0
149
0.0
 93
        0
 94
      127
282
     0
 72
     1
 77
     1
171
     1
175
     1
179
     1
273
     0
  0
XRECORD
  5
4BC
102
{ACAD_REACTORS
330
4BB
102
}
330
4BB
100
AcDbXrecord
280
     1
102
MATERIAL
148
0.0
149
0.0
149
0.0
 93
        0
 94
      127
282
     0
 72
     1
 77
     1
171
     1
175
     1
179
     1
273
     0
  0
XRECORD
  5
4C0
102
{ACAD_REACTORS
330
4BF
102
}
330
4BF
100
AcDbXrecord
280
     1
102
MATERIAL
148
0.0
149
0.0
149
0.0
 93
        0
 94
      127
282
     0
 72
     1
 77
     1
171
     1
175
     1
179
     1
273
     0
  0
XRECORD
  5
494
102
{ACAD_REACTORS
330
493
102
}
330
493
100
AcDbXrecord
280
     1
102
RTVSPropertyOp0
 70
     1
102
RTVSPropertyOp1
 70
     1
102
RTVSPropertyOp2
 70
     1
102
RTVSPropertyOp3
 70
     1
102
RTVSPropertyOp4
 70
     1
102
RTVSPropertyOp5
 70
     1
102
RTVSPropertyOp6
 70
     1
102
RTVSPropertyOp7
 70
     1
102
RTVSPropertyOp8
 70
     1
102
RTVSPropertyOp9
 70
     1
102
RTVSPropertyOp10
 70
     1
102
RTVSPropertyOp11
 70
     1
102
RTVSPropertyOp12
 70
     1
102
RTVSPropertyOp13
 70
     1
102
RTVSPropertyOp14
 70
     1
102
RTVSPropertyOp15
 70
     1
102
RTVSPropertyOp16
 70
     1
102
RTVSPropertyOp17
 70
     1
102
RTVSPropertyOp18
 70
     1
102
RTVSPropertyOp19
 70
     1
102
RTVSPropertyOp20
 70
     1
102
RTVSPropertyOp21
 70
     1
102
RTVSPropertyOp22
 70
     1
102
RTVSPropertyOp23
 70
     1
102
RTVSPropertyOp24
 70
     1
102
RTVSPropertyOp25
 70
     1
102
RTVSPropertyOp26
 70
     1
102
RTVSPropertyOp27
 70
     1
102
RTVSPropertyOp28
 70
     1
102
RTVSPropertyOp29
 70
     1
102
RTVSPropertyOp30
 70
     1
102
RTVSPropertyOp31
 70
     1
102
RTVSPropertyOp32
 70
     1
102
RTVSPropertyOp33
 70
     1
102
RTVSPropertyOp34
 70
     1
102
RTVSPropertyOp35
 70
     1
102
RTVSPropertyOp36
 70
     1
102
RTVSPropertyOp37
 70
     1
102
RTVSPropertyOp38
 70
     1
102
RTVSPropertyOp39
 70
     1
102
RTVSPropertyOp40
 70
     1
102
RTVSPropertyOp41
 70
     1
102
RTVSPropertyOp42
 70
     1
102
RTVSPropertyOp43
 70
     1
102
RTVSPropertyOp44
 70
     1
102
RTVSPropertyOp45
 70
     1
102
RTVSPropertyOp46
 70
     1
102
RTVSPropertyOp47
 70
     1
102
RTVSPropertyOp48
 70
     1
102
RTVSPropertyOp49
 70
     1
102
RTVSPropertyOp50
 70
     1
102
RTVSPropertyOp51
 70
     0
102
RTVSPropertyOp52
 70
     0
102
RTVSPropertyOp53
 70
     1
102
RTVSPropertyOp54
 70
     1
102
RTVSPropertyOp55
 70
     1
102
RTVSPropertyOp56
 70
     1
102
RTVSPropertyOp57
 70
     1
102
RTVSPost2010Prop28
280
     1
102
RTVSPost2010PropOp28
 70
     1
102
RTVSPost2010Prop29
280
     1
102
RTVSPost2010PropOp29
 70
     1
102
RTVSPost2010Prop30
280
     0
102
RTVSPost2010PropOp30
 70
     1
102
RTVSPost2010Prop31
280
     0
102
RTVSPost2010PropOp31
 70
     1
102
RTVSPost2010Prop32
280
     0
102
RTVSPost2010PropOp32
 70
     1
102
RTVSPost2010Prop33
280
     0
102
RTVSPost2010PropOp33
 70
     1
102
RTVSPost2010Prop34
280
     0
102
RTVSPost2010PropOp34
 70
     1
102
RTVSPost2010Prop35
280
     0
102
RTVSPost2010PropOp35
 70
     1
102
RTVSPost2010Prop36
280
     0
102
RTVSPost2010PropOp36
 70
     1
102
RTVSPost2010Prop37
 90
       50
102
RTVSPost2010PropOp37
 70
     1
102
RTVSPost2010Prop38
140
0.0
102
RTVSPost2010PropOp38
 70
     1
102
RTVSPost2010Prop39
140
1.0
102
RTVSPost2010PropOp39
 70
     1
102
RTVSPost2010Prop40
 90
        0
102
RTVSPost2010PropOp40
 70
     1
102
RTVSPost2010Prop41ColorIndex
 90
       18
102
RTVSPost2010Prop41ColorRGB
 90
        0
102
RTVSPost2010PropOp41
 70
     1
102
RTVSPost2010Prop42
 90
       50
102
RTVSPost2010PropOp42
 70
     1
102
RTVSPost2010Prop43
 90
        3
102
RTVSPost2010PropOp43
 70
     1
102
RTVSPost2010Prop44ColorIndex
 90
        5
102
RTVSPost2010Prop44ColorRGB
 90
      255
102
RTVSPost2010PropOp44
 70
     1
102
RTVSPost2010Prop45
280
     0
102
RTVSPost2010PropOp45
 70
     1
102
RTVSPost2010Prop46
 90
       50
102
RTVSPost2010PropOp46
 70
     1
102
RTVSPost2010Prop47
 90
       50
102
RTVSPost2010PropOp47
 70
     1
102
RTVSPost2010Prop48
 90
       50
102
RTVSPost2010PropOp48
 70
     1
102
RTVSPost2010Prop49
280
     0
102
RTVSPost2010PropOp49
 70
     1
102
RTVSPost2010Prop50
 90
       50
102
RTVSPost2010PropOp50
 70
     1
102
RTVSPost2010Prop51ColorIndex
 90
      256
102
RTVSPost2010Prop51ColorRGB
 90
-16777216
102
RTVSPost2010PropOp51
 70
     0
102
RTVSPost2010Prop52
140
1.0
102
RTVSPost2010PropOp52
 70
     0
102
RTVSPost2010Prop53
 90
        2
102
RTVSPost2010PropOp53
 70
     1
102
RTVSPost2010Prop54
  1
strokes_ogs.tif
102
RTVSPost2010PropOp54
 70
     1
102
RTVSPost2010Prop55
280
     0
102
RTVSPost2010PropOp55
 70
     1
102
RTVSPost2010Prop56
140
1.0
102
RTVSPost2010PropOp56
 70
     1
102
RTVSPost2010Prop57
140
1.0
102
RTVSPost2010PropOp57
 70
     1
  0
XRECORD
  5
49A
102
{ACAD_REACTORS
330
499
102
}
330
499
100
AcDbXrecord
280
     1
102
RTVSPropertyOp0
 70
     1
102
RTVSPropertyOp1
 70
     1
102
RTVSPropertyOp2
 70
     1
102
RTVSPropertyOp3
 70
     1
102
RTVSPropertyOp4
 70
     1
102
RTVSPropertyOp5
 70
     1
102
RTVSPropertyOp6
 70
     1
102
RTVSPropertyOp7
 70
     1
102
RTVSPropertyOp8
 70
     1
102
RTVSPropertyOp9
 70
     1
102
RTVSPropertyOp10
 70
     1
102
RTVSPropertyOp11
 70
     1
102
RTVSPropertyOp12
 70
     1
102
RTVSPropertyOp13
 70
     1
102
RTVSPropertyOp14
 70
     1
102
RTVSPropertyOp15
 70
     1
102
RTVSPropertyOp16
 70
     1
102
RTVSPropertyOp17
 70
     1
102
RTVSPropertyOp18
 70
     1
102
RTVSPropertyOp19
 70
     1
102
RTVSPropertyOp20
 70
     1
102
RTVSPropertyOp21
 70
     1
102
RTVSPropertyOp22
 70
     1
102
RTVSPropertyOp23
 70
     1
102
RTVSPropertyOp24
 70
     1
102
RTVSPropertyOp25
 70
     1
102
RTVSPropertyOp26
 70
     1
102
RTVSPropertyOp27
 70
     1
102
RTVSPropertyOp28
 70
     1
102
RTVSPropertyOp29
 70
     1
102
RTVSPropertyOp30
 70
     1
102
RTVSPropertyOp31
 70
     1
102
RTVSPropertyOp32
 70
     1
102
RTVSPropertyOp33
 70
     1
102
RTVSPropertyOp34
 70
     1
102
RTVSPropertyOp35
 70
     1
102
RTVSPropertyOp36
 70
     1
102
RTVSPropertyOp37
 70
     1
102
RTVSPropertyOp38
 70
     1
102
RTVSPropertyOp39
 70
     1
102
RTVSPropertyOp40
 70
     1
102
RTVSPropertyOp41
 70
     1
102
RTVSPropertyOp42
 70
     1
102
RTVSPropertyOp43
 70
     1
102
RTVSPropertyOp44
 70
     1
102
RTVSPropertyOp45
 70
     1
102
RTVSPropertyOp46
 70
     1
102
RTVSPropertyOp47
 70
     1
102
RTVSPropertyOp48
 70
     1
102
RTVSPropertyOp49
 70
     1
102
RTVSPropertyOp50
 70
     1
102
RTVSPropertyOp51
 70
     0
102
RTVSPropertyOp52
 70
     0
102
RTVSPropertyOp53
 70
     1
102
RTVSPropertyOp54
 70
     1
102
RTVSPropertyOp55
 70
     1
102
RTVSPropertyOp56
 70
     1
102
RTVSPropertyOp57
 70
     1
102
RTVSPost2010Prop28
280
     0
102
RTVSPost2010PropOp28
 70
     1
102
RTVSPost2010Prop29
280
     1
102
RTVSPost2010PropOp29
 70
     1
102
RTVSPost2010Prop30
280
     1
102
RTVSPost2010PropOp30
 70
     1
102
RTVSPost2010Prop31
280
     0
102
RTVSPost2010PropOp31
 70
     1
102
RTVSPost2010Prop32
280
     0
102
RTVSPost2010PropOp32
 70
     1
102
RTVSPost2010Prop33
280
     0
102
RTVSPost2010PropOp33
 70
     1
102
RTVSPost2010Prop34
280
     0
102
RTVSPost2010PropOp34
 70
     1
102
RTVSPost2010Prop35
280
     0
102
RTVSPost2010PropOp35
 70
     1
102
RTVSPost2010Prop36
280
     0
102
RTVSPost2010PropOp36
 70
     1
102
RTVSPost2010Prop37
 90
       50
102
RTVSPost2010PropOp37
 70
     1
102
RTVSPost2010Prop38
140
0.0
102
RTVSPost2010PropOp38
 70
     1
102
RTVSPost2010Prop39
140
1.0
102
RTVSPost2010PropOp39
 70
     1
102
RTVSPost2010Prop40
 90
        0
102
RTVSPost2010PropOp40
 70
     1
102
RTVSPost2010Prop41ColorIndex
 90
       18
102
RTVSPost2010Prop41ColorRGB
 90
        0
102
RTVSPost2010PropOp41
 70
     1
102
RTVSPost2010Prop42
 90
       50
102
RTVSPost2010PropOp42
 70
     1
102
RTVSPost2010Prop43
 90
        3
102
RTVSPost2010PropOp43
 70
     1
102
RTVSPost2010Prop44ColorIndex
 90
        5
102
RTVSPost2010Prop44ColorRGB
 90
      255
102
RTVSPost2010PropOp44
 70
     1
102
RTVSPost2010Prop45
280
     0
102
RTVSPost2010PropOp45
 70
     1
102
RTVSPost2010Prop46
 90
       50
102
RTVSPost2010PropOp46
 70
     1
102
RTVSPost2010Prop47
 90
       50
102
RTVSPost2010PropOp47
 70
     1
102
RTVSPost2010Prop48
 90
       50
102
RTVSPost2010PropOp48
 70
     1
102
RTVSPost2010Prop49
280
     0
102
RTVSPost2010PropOp49
 70
     1
102
RTVSPost2010Prop50
 90
       50
102
RTVSPost2010PropOp50
 70
     1
102
RTVSPost2010Prop51ColorIndex
 90
      256
102
RTVSPost2010Prop51ColorRGB
 90
-16777216
102
RTVSPost2010PropOp51
 70
     0
102
RTVSPost2010Prop52
140
1.0
102
RTVSPost2010PropOp52
 70
     0
102
RTVSPost2010Prop53
 90
        2
102
RTVSPost2010PropOp53
 70
     1
102
RTVSPost2010Prop54
  1
strokes_ogs.tif
102
RTVSPost2010PropOp54
 70
     1
102
RTVSPost2010Prop55
280
     0
102
RTVSPost2010PropOp55
 70
     1
102
RTVSPost2010Prop56
140
1.0
102
RTVSPost2010PropOp56
 70
     1
102
RTVSPost2010Prop57
140
1.0
102
RTVSPost2010PropOp57
 70
     1
  0
XRECORD
  5
4A2
102
{ACAD_REACTORS
330
4A1
102
}
330
4A1
100
AcDbXrecord
280
     1
102
RTVSPropertyOp0
 70
     1
102
RTVSPropertyOp1
 70
     1
102
RTVSPropertyOp2
 70
     1
102
RTVSPropertyOp3
 70
     1
102
RTVSPropertyOp4
 70
     1
102
RTVSPropertyOp5
 70
     1
102
RTVSPropertyOp6
 70
     1
102
RTVSPropertyOp7
 70
     1
102
RTVSPropertyOp8
 70
     1
102
RTVSPropertyOp9
 70
     1
102
RTVSPropertyOp10
 70
     1
102
RTVSPropertyOp11
 70
     1
102
RTVSPropertyOp12
 70
     1
102
RTVSPropertyOp13
 70
     1
102
RTVSPropertyOp14
 70
     1
102
RTVSPropertyOp15
 70
     1
102
RTVSPropertyOp16
 70
     1
102
RTVSPropertyOp17
 70
     1
102
RTVSPropertyOp18
 70
     1
102
RTVSPropertyOp19
 70
     1
102
RTVSPropertyOp20
 70
     1
102
RTVSPropertyOp21
 70
     1
102
RTVSPropertyOp22
 70
     1
102
RTVSPropertyOp23
 70
     1
102
RTVSPropertyOp24
 70
     1
102
RTVSPropertyOp25
 70
     1
102
RTVSPropertyOp26
 70
     1
102
RTVSPropertyOp27
 70
     1
102
RTVSPropertyOp28
 70
     1
102
RTVSPropertyOp29
 70
     1
102
RTVSPropertyOp30
 70
     1
102
RTVSPropertyOp31
 70
     1
102
RTVSPropertyOp32
 70
     1
102
RTVSPropertyOp33
 70
     1
102
RTVSPropertyOp34
 70
     1
102
RTVSPropertyOp35
 70
     1
102
RTVSPropertyOp36
 70
     1
102
RTVSPropertyOp37
 70
     1
102
RTVSPropertyOp38
 70
     1
102
RTVSPropertyOp39
 70
     1
102
RTVSPropertyOp40
 70
     1
102
RTVSPropertyOp41
 70
     1
102
RTVSPropertyOp42
 70
     1
102
RTVSPropertyOp43
 70
     1
102
RTVSPropertyOp44
 70
     1
102
RTVSPropertyOp45
 70
     1
102
RTVSPropertyOp46
 70
     1
102
RTVSPropertyOp47
 70
     1
102
RTVSPropertyOp48
 70
     1
102
RTVSPropertyOp49
 70
     1
102
RTVSPropertyOp50
 70
     1
102
RTVSPropertyOp51
 70
     0
102
RTVSPropertyOp52
 70
     0
102
RTVSPropertyOp53
 70
     1
102
RTVSPropertyOp54
 70
     1
102
RTVSPropertyOp55
 70
     1
102
RTVSPropertyOp56
 70
     1
102
RTVSPropertyOp57
 70
     1
102
RTVSPost2010Prop28
280
     0
102
RTVSPost2010PropOp28
 70
     1
102
RTVSPost2010Prop29
280
     1
102
RTVSPost2010PropOp29
 70
     1
102
RTVSPost2010Prop30
280
     1
102
RTVSPost2010PropOp30
 70
     1
102
RTVSPost2010Prop31
280
     0
102
RTVSPost2010PropOp31
 70
     1
102
RTVSPost2010Prop32
280
     0
102
RTVSPost2010PropOp32
 70
     1
102
RTVSPost2010Prop33
280
     0
102
RTVSPost2010PropOp33
 70
     1
102
RTVSPost2010Prop34
280
     0
102
RTVSPost2010PropOp34
 70
     1
102
RTVSPost2010Prop35
280
     0
102
RTVSPost2010PropOp35
 70
     1
102
RTVSPost2010Prop36
280
     0
102
RTVSPost2010PropOp36
 70
     1
102
RTVSPost2010Prop37
 90
       50
102
RTVSPost2010PropOp37
 70
     1
102
RTVSPost2010Prop38
140
0.0
102
RTVSPost2010PropOp38
 70
     1
102
RTVSPost2010Prop39
140
1.0
102
RTVSPost2010PropOp39
 70
     1
102
RTVSPost2010Prop40
 90
        0
102
RTVSPost2010PropOp40
 70
     1
102
RTVSPost2010Prop41ColorIndex
 90
       18
102
RTVSPost2010Prop41ColorRGB
 90
        0
102
RTVSPost2010PropOp41
 70
     1
102
RTVSPost2010Prop42
 90
       50
102
RTVSPost2010PropOp42
 70
     1
102
RTVSPost2010Prop43
 90
        3
102
RTVSPost2010PropOp43
 70
     1
102
RTVSPost2010Prop44ColorIndex
 90
        5
102
RTVSPost2010Prop44ColorRGB
 90
      255
102
RTVSPost2010PropOp44
 70
     1
102
RTVSPost2010Prop45
280
     0
102
RTVSPost2010PropOp45
 70
     1
102
RTVSPost2010Prop46
 90
       50
102
RTVSPost2010PropOp46
 70
     1
102
RTVSPost2010Prop47
 90
       50
102
RTVSPost2010PropOp47
 70
     1
102
RTVSPost2010Prop48
 90
       50
102
RTVSPost2010PropOp48
 70
     1
102
RTVSPost2010Prop49
280
     0
102
RTVSPost2010PropOp49
 70
     1
102
RTVSPost2010Prop50
 90
       50
102
RTVSPost2010PropOp50
 70
     1
102
RTVSPost2010Prop51ColorIndex
 90
      256
102
RTVSPost2010Prop51ColorRGB
 90
-16777216
102
RTVSPost2010PropOp51
 70
     0
102
RTVSPost2010Prop52
140
1.0
102
RTVSPost2010PropOp52
 70
     0
102
RTVSPost2010Prop53
 90
        2
102
RTVSPost2010PropOp53
 70
     1
102
RTVSPost2010Prop54
  1
strokes_ogs.tif
102
RTVSPost2010PropOp54
 70
     1
102
RTVSPost2010Prop55
280
     0
102
RTVSPost2010PropOp55
 70
     1
102
RTVSPost2010Prop56
140
1.0
102
RTVSPost2010PropOp56
 70
     1
102
RTVSPost2010Prop57
140
1.0
102
RTVSPost2010PropOp57
 70
     1
  0
XRECORD
  5
4AA
102
{ACAD_REACTORS
330
4A9
102
}
330
4A9
100
AcDbXrecord
280
     1
102
RTVSPropertyOp0
 70
     1
102
RTVSPropertyOp1
 70
     1
102
RTVSPropertyOp2
 70
     1
102
RTVSPropertyOp3
 70
     1
102
RTVSPropertyOp4
 70
     1
102
RTVSPropertyOp5
 70
     1
102
RTVSPropertyOp6
 70
     1
102
RTVSPropertyOp7
 70
     1
102
RTVSPropertyOp8
 70
     1
102
RTVSPropertyOp9
 70
     1
102
RTVSPropertyOp10
 70
     1
102
RTVSPropertyOp11
 70
     1
102
RTVSPropertyOp12
 70
     1
102
RTVSPropertyOp13
 70
     1
102
RTVSPropertyOp14
 70
     1
102
RTVSPropertyOp15
 70
     1
102
RTVSPropertyOp16
 70
     1
102
RTVSPropertyOp17
 70
     1
102
RTVSPropertyOp18
 70
     1
102
RTVSPropertyOp19
 70
     1
102
RTVSPropertyOp20
 70
     1
102
RTVSPropertyOp21
 70
     1
102
RTVSPropertyOp22
 70
     1
102
RTVSPropertyOp23
 70
     1
102
RTVSPropertyOp24
 70
     1
102
RTVSPropertyOp25
 70
     1
102
RTVSPropertyOp26
 70
     1
102
RTVSPropertyOp27
 70
     1
102
RTVSPropertyOp28
 70
     1
102
RTVSPropertyOp29
 70
     1
102
RTVSPropertyOp30
 70
     1
102
RTVSPropertyOp31
 70
     1
102
RTVSPropertyOp32
 70
     1
102
RTVSPropertyOp33
 70
     1
102
RTVSPropertyOp34
 70
     1
102
RTVSPropertyOp35
 70
     1
102
RTVSPropertyOp36
 70
     1
102
RTVSPropertyOp37
 70
     1
102
RTVSPropertyOp38
 70
     1
102
RTVSPropertyOp39
 70
     1
102
RTVSPropertyOp40
 70
     1
102
RTVSPropertyOp41
 70
     1
102
RTVSPropertyOp42
 70
     1
102
RTVSPropertyOp43
 70
     1
102
RTVSPropertyOp44
 70
     1
102
RTVSPropertyOp45
 70
     1
102
RTVSPropertyOp46
 70
     1
102
RTVSPropertyOp47
 70
     1
102
RTVSPropertyOp48
 70
     1
102
RTVSPropertyOp49
 70
     1
102
RTVSPropertyOp50
 70
     1
102
RTVSPropertyOp51
 70
     0
102
RTVSPropertyOp52
 70
     0
102
RTVSPropertyOp53
 70
     1
102
RTVSPropertyOp54
 70
     1
102
RTVSPropertyOp55
 70
     1
102
RTVSPropertyOp56
 70
     1
102
RTVSPropertyOp57
 70
     1
102
RTVSPost2010Prop28
280
     0
102
RTVSPost2010PropOp28
 70
     1
102
RTVSPost2010Prop29
280
     1
102
RTVSPost2010PropOp29
 70
     1
102
RTVSPost2010Prop30
280
     1
102
RTVSPost2010PropOp30
 70
     1
102
RTVSPost2010Prop31
280
     0
102
RTVSPost2010PropOp31
 70
     1
102
RTVSPost2010Prop32
280
     0
102
RTVSPost2010PropOp32
 70
     1
102
RTVSPost2010Prop33
280
     0
102
RTVSPost2010PropOp33
 70
     1
102
RTVSPost2010Prop34
280
     0
102
RTVSPost2010PropOp34
 70
     1
102
RTVSPost2010Prop35
280
     0
102
RTVSPost2010PropOp35
 70
     1
102
RTVSPost2010Prop36
280
     0
102
RTVSPost2010PropOp36
 70
     1
102
RTVSPost2010Prop37
 90
       50
102
RTVSPost2010PropOp37
 70
     1
102
RTVSPost2010Prop38
140
0.0
102
RTVSPost2010PropOp38
 70
     1
102
RTVSPost2010Prop39
140
1.0
102
RTVSPost2010PropOp39
 70
     1
102
RTVSPost2010Prop40
 90
        0
102
RTVSPost2010PropOp40
 70
     1
102
RTVSPost2010Prop41ColorIndex
 90
       18
102
RTVSPost2010Prop41ColorRGB
 90
        0
102
RTVSPost2010PropOp41
 70
     1
102
RTVSPost2010Prop42
 90
       50
102
RTVSPost2010PropOp42
 70
     1
102
RTVSPost2010Prop43
 90
        3
102
RTVSPost2010PropOp43
 70
     1
102
RTVSPost2010Prop44ColorIndex
 90
        5
102
RTVSPost2010Prop44ColorRGB
 90
      255
102
RTVSPost2010PropOp44
 70
     1
102
RTVSPost2010Prop45
280
     0
102
RTVSPost2010PropOp45
 70
     1
102
RTVSPost2010Prop46
 90
       50
102
RTVSPost2010PropOp46
 70
     1
102
RTVSPost2010Prop47
 90
       50
102
RTVSPost2010PropOp47
 70
     1
102
RTVSPost2010Prop48
 90
       50
102
RTVSPost2010PropOp48
 70
     1
102
RTVSPost2010Prop49
280
     0
102
RTVSPost2010PropOp49
 70
     1
102
RTVSPost2010Prop50
 90
       50
102
RTVSPost2010PropOp50
 70
     1
102
RTVSPost2010Prop51ColorIndex
 90
      256
102
RTVSPost2010Prop51ColorRGB
 90
-16777216
102
RTVSPost2010PropOp51
 70
     0
102
RTVSPost2010Prop52
140
1.0
102
RTVSPost2010PropOp52
 70
     0
102
RTVSPost2010Prop53
 90
        2
102
RTVSPost2010PropOp53
 70
     1
102
RTVSPost2010Prop54
  1
strokes_ogs.tif
102
RTVSPost2010PropOp54
 70
     1
102
RTVSPost2010Prop55
280
     0
102
RTVSPost2010PropOp55
 70
     1
102
RTVSPost2010Prop56
140
1.0
102
RTVSPost2010PropOp56
 70
     1
102
RTVSPost2010Prop57
140
1.0
102
RTVSPost2010PropOp57
 70
     1
  0
XRECORD
  5
49E
102
{ACAD_REACTORS
330
49D
102
}
330
49D
100
AcDbXrecord
280
     1
102
RTVSPropertyOp0
 70
     1
102
RTVSPropertyOp1
 70
     1
102
RTVSPropertyOp2
 70
     1
102
RTVSPropertyOp3
 70
     1
102
RTVSPropertyOp4
 70
     1
102
RTVSPropertyOp5
 70
     1
102
RTVSPropertyOp6
 70
     1
102
RTVSPropertyOp7
 70
     1
102
RTVSPropertyOp8
 70
     1
102
RTVSPropertyOp9
 70
     1
102
RTVSPropertyOp10
 70
     1
102
RTVSPropertyOp11
 70
     1
102
RTVSPropertyOp12
 70
     1
102
RTVSPropertyOp13
 70
     1
102
RTVSPropertyOp14
 70
     1
102
RTVSPropertyOp15
 70
     1
102
RTVSPropertyOp16
 70
     1
102
RTVSPropertyOp17
 70
     1
102
RTVSPropertyOp18
 70
     1
102
RTVSPropertyOp19
 70
     1
102
RTVSPropertyOp20
 70
     1
102
RTVSPropertyOp21
 70
     1
102
RTVSPropertyOp22
 70
     1
102
RTVSPropertyOp23
 70
     1
102
RTVSPropertyOp24
 70
     1
102
RTVSPropertyOp25
 70
     1
102
RTVSPropertyOp26
 70
     1
102
RTVSPropertyOp27
 70
     1
102
RTVSPropertyOp28
 70
     1
102
RTVSPropertyOp29
 70
     1
102
RTVSPropertyOp30
 70
     1
102
RTVSPropertyOp31
 70
     1
102
RTVSPropertyOp32
 70
     1
102
RTVSPropertyOp33
 70
     1
102
RTVSPropertyOp34
 70
     1
102
RTVSPropertyOp35
 70
     1
102
RTVSPropertyOp36
 70
     1
102
RTVSPropertyOp37
 70
     1
102
RTVSPropertyOp38
 70
     1
102
RTVSPropertyOp39
 70
     1
102
RTVSPropertyOp40
 70
     1
102
RTVSPropertyOp41
 70
     1
102
RTVSPropertyOp42
 70
     1
102
RTVSPropertyOp43
 70
     1
102
RTVSPropertyOp44
 70
     1
102
RTVSPropertyOp45
 70
     1
102
RTVSPropertyOp46
 70
     1
102
RTVSPropertyOp47
 70
     1
102
RTVSPropertyOp48
 70
     1
102
RTVSPropertyOp49
 70
     1
102
RTVSPropertyOp50
 70
     1
102
RTVSPropertyOp51
 70
     0
102
RTVSPropertyOp52
 70
     0
102
RTVSPropertyOp53
 70
     1
102
RTVSPropertyOp54
 70
     1
102
RTVSPropertyOp55
 70
     1
102
RTVSPropertyOp56
 70
     1
102
RTVSPropertyOp57
 70
     1
102
RTVSPost2010Prop28
280
     0
102
RTVSPost2010PropOp28
 70
     1
102
RTVSPost2010Prop29
280
     1
102
RTVSPost2010PropOp29
 70
     1
102
RTVSPost2010Prop30
280
     1
102
RTVSPost2010PropOp30
 70
     1
102
RTVSPost2010Prop31
280
     0
102
RTVSPost2010PropOp31
 70
     1
102
RTVSPost2010Prop32
280
     0
102
RTVSPost2010PropOp32
 70
     1
102
RTVSPost2010Prop33
280
     0
102
RTVSPost2010PropOp33
 70
     1
102
RTVSPost2010Prop34
280
     0
102
RTVSPost2010PropOp34
 70
     1
102
RTVSPost2010Prop35
280
     0
102
RTVSPost2010PropOp35
 70
     1
102
RTVSPost2010Prop36
280
     0
102
RTVSPost2010PropOp36
 70
     1
102
RTVSPost2010Prop37
 90
       50
102
RTVSPost2010PropOp37
 70
     1
102
RTVSPost2010Prop38
140
0.0
102
RTVSPost2010PropOp38
 70
     1
102
RTVSPost2010Prop39
140
1.0
102
RTVSPost2010PropOp39
 70
     1
102
RTVSPost2010Prop40
 90
        0
102
RTVSPost2010PropOp40
 70
     1
102
RTVSPost2010Prop41ColorIndex
 90
       18
102
RTVSPost2010Prop41ColorRGB
 90
        0
102
RTVSPost2010PropOp41
 70
     1
102
RTVSPost2010Prop42
 90
       50
102
RTVSPost2010PropOp42
 70
     1
102
RTVSPost2010Prop43
 90
        3
102
RTVSPost2010PropOp43
 70
     1
102
RTVSPost2010Prop44ColorIndex
 90
        5
102
RTVSPost2010Prop44ColorRGB
 90
      255
102
RTVSPost2010PropOp44
 70
     1
102
RTVSPost2010Prop45
280
     0
102
RTVSPost2010PropOp45
 70
     1
102
RTVSPost2010Prop46
 90
       50
102
RTVSPost2010PropOp46
 70
     1
102
RTVSPost2010Prop47
 90
       50
102
RTVSPost2010PropOp47
 70
     1
102
RTVSPost2010Prop48
 90
       50
102
RTVSPost2010PropOp48
 70
     1
102
RTVSPost2010Prop49
280
     0
102
RTVSPost2010PropOp49
 70
     1
102
RTVSPost2010Prop50
 90
       50
102
RTVSPost2010PropOp50
 70
     1
102
RTVSPost2010Prop51ColorIndex
 90
      256
102
RTVSPost2010Prop51ColorRGB
 90
-16777216
102
RTVSPost2010PropOp51
 70
     0
102
RTVSPost2010Prop52
140
1.0
102
RTVSPost2010PropOp52
 70
     0
102
RTVSPost2010Prop53
 90
        2
102
RTVSPost2010PropOp53
 70
     1
102
RTVSPost2010Prop54
  1
strokes_ogs.tif
102
RTVSPost2010PropOp54
 70
     1
102
RTVSPost2010Prop55
280
     0
102
RTVSPost2010PropOp55
 70
     1
102
RTVSPost2010Prop56
140
1.0
102
RTVSPost2010PropOp56
 70
     1
102
RTVSPost2010Prop57
140
1.0
102
RTVSPost2010PropOp57
 70
     1
  0
XRECORD
  5
4A0
102
{ACAD_REACTORS
330
49F
102
}
330
49F
100
AcDbXrecord
280
     1
102
RTVSPropertyOp0
 70
     1
102
RTVSPropertyOp1
 70
     1
102
RTVSPropertyOp2
 70
     1
102
RTVSPropertyOp3
 70
     1
102
RTVSPropertyOp4
 70
     1
102
RTVSPropertyOp5
 70
     1
102
RTVSPropertyOp6
 70
     1
102
RTVSPropertyOp7
 70
     1
102
RTVSPropertyOp8
 70
     1
102
RTVSPropertyOp9
 70
     1
102
RTVSPropertyOp10
 70
     1
102
RTVSPropertyOp11
 70
     1
102
RTVSPropertyOp12
 70
     1
102
RTVSPropertyOp13
 70
     1
102
RTVSPropertyOp14
 70
     1
102
RTVSPropertyOp15
 70
     1
102
RTVSPropertyOp16
 70
     1
102
RTVSPropertyOp17
 70
     1
102
RTVSPropertyOp18
 70
     1
102
RTVSPropertyOp19
 70
     1
102
RTVSPropertyOp20
 70
     1
102
RTVSPropertyOp21
 70
     1
102
RTVSPropertyOp22
 70
     1
102
RTVSPropertyOp23
 70
     1
102
RTVSPropertyOp24
 70
     1
102
RTVSPropertyOp25
 70
     1
102
RTVSPropertyOp26
 70
     1
102
RTVSPropertyOp27
 70
     1
102
RTVSPropertyOp28
 70
     1
102
RTVSPropertyOp29
 70
     1
102
RTVSPropertyOp30
 70
     1
102
RTVSPropertyOp31
 70
     1
102
RTVSPropertyOp32
 70
     1
102
RTVSPropertyOp33
 70
     1
102
RTVSPropertyOp34
 70
     1
102
RTVSPropertyOp35
 70
     1
102
RTVSPropertyOp36
 70
     1
102
RTVSPropertyOp37
 70
     1
102
RTVSPropertyOp38
 70
     1
102
RTVSPropertyOp39
 70
     1
102
RTVSPropertyOp40
 70
     1
102
RTVSPropertyOp41
 70
     1
102
RTVSPropertyOp42
 70
     1
102
RTVSPropertyOp43
 70
     1
102
RTVSPropertyOp44
 70
     1
102
RTVSPropertyOp45
 70
     1
102
RTVSPropertyOp46
 70
     1
102
RTVSPropertyOp47
 70
     1
102
RTVSPropertyOp48
 70
     1
102
RTVSPropertyOp49
 70
     1
102
RTVSPropertyOp50
 70
     1
102
RTVSPropertyOp51
 70
     0
102
RTVSPropertyOp52
 70
     0
102
RTVSPropertyOp53
 70
     1
102
RTVSPropertyOp54
 70
     1
102
RTVSPropertyOp55
 70
     1
102
RTVSPropertyOp56
 70
     1
102
RTVSPropertyOp57
 70
     1
102
RTVSPost2010Prop28
280
     0
102
RTVSPost2010PropOp28
 70
     1
102
RTVSPost2010Prop29
280
     1
102
RTVSPost2010PropOp29
 70
     1
102
RTVSPost2010Prop30
280
     1
102
RTVSPost2010PropOp30
 70
     1
102
RTVSPost2010Prop31
280
     0
102
RTVSPost2010PropOp31
 70
     1
102
RTVSPost2010Prop32
280
     0
102
RTVSPost2010PropOp32
 70
     1
102
RTVSPost2010Prop33
280
     0
102
RTVSPost2010PropOp33
 70
     1
102
RTVSPost2010Prop34
280
     0
102
RTVSPost2010PropOp34
 70
     1
102
RTVSPost2010Prop35
280
     0
102
RTVSPost2010PropOp35
 70
     1
102
RTVSPost2010Prop36
280
     0
102
RTVSPost2010PropOp36
 70
     1
102
RTVSPost2010Prop37
 90
       50
102
RTVSPost2010PropOp37
 70
     1
102
RTVSPost2010Prop38
140
0.0
102
RTVSPost2010PropOp38
 70
     1
102
RTVSPost2010Prop39
140
1.0
102
RTVSPost2010PropOp39
 70
     1
102
RTVSPost2010Prop40
 90
        0
102
RTVSPost2010PropOp40
 70
     1
102
RTVSPost2010Prop41ColorIndex
 90
       18
102
RTVSPost2010Prop41ColorRGB
 90
        0
102
RTVSPost2010PropOp41
 70
     1
102
RTVSPost2010Prop42
 90
       50
102
RTVSPost2010PropOp42
 70
     1
102
RTVSPost2010Prop43
 90
        3
102
RTVSPost2010PropOp43
 70
     1
102
RTVSPost2010Prop44ColorIndex
 90
        5
102
RTVSPost2010Prop44ColorRGB
 90
      255
102
RTVSPost2010PropOp44
 70
     1
102
RTVSPost2010Prop45
280
     0
102
RTVSPost2010PropOp45
 70
     1
102
RTVSPost2010Prop46
 90
       50
102
RTVSPost2010PropOp46
 70
     1
102
RTVSPost2010Prop47
 90
       50
102
RTVSPost2010PropOp47
 70
     1
102
RTVSPost2010Prop48
 90
       50
102
RTVSPost2010PropOp48
 70
     1
102
RTVSPost2010Prop49
280
     0
102
RTVSPost2010PropOp49
 70
     1
102
RTVSPost2010Prop50
 90
       50
102
RTVSPost2010PropOp50
 70
     1
102
RTVSPost2010Prop51ColorIndex
 90
      256
102
RTVSPost2010Prop51ColorRGB
 90
-16777216
102
RTVSPost2010PropOp51
 70
     0
102
RTVSPost2010Prop52
140
1.0
102
RTVSPost2010PropOp52
 70
     0
102
RTVSPost2010Prop53
 90
        2
102
RTVSPost2010PropOp53
 70
     1
102
RTVSPost2010Prop54
  1
strokes_ogs.tif
102
RTVSPost2010PropOp54
 70
     1
102
RTVSPost2010Prop55
280
     0
102
RTVSPost2010PropOp55
 70
     1
102
RTVSPost2010Prop56
140
1.0
102
RTVSPost2010PropOp56
 70
     1
102
RTVSPost2010Prop57
140
1.0
102
RTVSPost2010PropOp57
 70
     1
  0
XRECORD
  5
4B0
102
{ACAD_REACTORS
330
4AF
102
}
330
4AF
100
AcDbXrecord
280
     1
102
RTVSPropertyOp0
 70
     0
102
RTVSPropertyOp1
 70
     0
102
RTVSPropertyOp2
 70
     0
102
RTVSPropertyOp3
 70
     0
102
RTVSPropertyOp4
 70
     0
102
RTVSPropertyOp5
 70
     0
102
RTVSPropertyOp6
 70
     0
102
RTVSPropertyOp7
 70
     0
102
RTVSPropertyOp8
 70
     0
102
RTVSPropertyOp9
 70
     0
102
RTVSPropertyOp10
 70
     0
102
RTVSPropertyOp11
 70
     0
102
RTVSPropertyOp12
 70
     0
102
RTVSPropertyOp13
 70
     0
102
RTVSPropertyOp14
 70
     2
102
RTVSPropertyOp15
 70
     0
102
RTVSPropertyOp16
 70
     0
102
RTVSPropertyOp17
 70
     0
102
RTVSPropertyOp18
 70
     0
102
RTVSPropertyOp19
 70
     0
102
RTVSPropertyOp20
 70
     0
102
RTVSPropertyOp21
 70
     0
102
RTVSPropertyOp22
 70
     0
102
RTVSPropertyOp23
 70
     0
102
RTVSPropertyOp24
 70
     0
102
RTVSPropertyOp25
 70
     0
102
RTVSPropertyOp26
 70
     0
102
RTVSPropertyOp27
 70
     0
102
RTVSPropertyOp28
 70
     0
102
RTVSPropertyOp29
 70
     0
102
RTVSPropertyOp30
 70
     0
102
RTVSPropertyOp31
 70
     0
102
RTVSPropertyOp32
 70
     0
102
RTVSPropertyOp33
 70
     0
102
RTVSPropertyOp34
 70
     0
102
RTVSPropertyOp35
 70
     0
102
RTVSPropertyOp36
 70
     0
102
RTVSPropertyOp37
 70
     0
102
RTVSPropertyOp38
 70
     0
102
RTVSPropertyOp39
 70
     0
102
RTVSPropertyOp40
 70
     0
102
RTVSPropertyOp41
 70
     0
102
RTVSPropertyOp42
 70
     0
102
RTVSPropertyOp43
 70
     0
102
RTVSPropertyOp44
 70
     0
102
RTVSPropertyOp45
 70
     0
102
RTVSPropertyOp46
 70
     0
102
RTVSPropertyOp47
 70
     0
102
RTVSPropertyOp48
 70
     0
102
RTVSPropertyOp49
 70
     0
102
RTVSPropertyOp50
 70
     0
102
RTVSPropertyOp51
 70
     0
102
RTVSPropertyOp52
 70
     0
102
RTVSPropertyOp53
 70
     0
102
RTVSPropertyOp54
 70
     0
102
RTVSPropertyOp55
 70
     0
102
RTVSPropertyOp56
 70
     0
102
RTVSPropertyOp57
 70
     0
102
RTVSPost2010Prop28
280
     0
102
RTVSPost2010PropOp28
 70
     0
102
RTVSPost2010Prop29
280
     1
102
RTVSPost2010PropOp29
 70
     0
102
RTVSPost2010Prop30
280
     1
102
RTVSPost2010PropOp30
 70
     0
102
RTVSPost2010Prop31
280
     0
102
RTVSPost2010PropOp31
 70
     0
102
RTVSPost2010Prop32
280
     0
102
RTVSPost2010PropOp32
 70
     0
102
RTVSPost2010Prop33
280
     0
102
RTVSPost2010PropOp33
 70
     0
102
RTVSPost2010Prop34
280
     0
102
RTVSPost2010PropOp34
 70
     0
102
RTVSPost2010Prop35
280
     0
102
RTVSPost2010PropOp35
 70
     0
102
RTVSPost2010Prop36
280
     0
102
RTVSPost2010PropOp36
 70
     0
102
RTVSPost2010Prop37
 90
       50
102
RTVSPost2010PropOp37
 70
     0
102
RTVSPost2010Prop38
140
0.0
102
RTVSPost2010PropOp38
 70
     0
102
RTVSPost2010Prop39
140
1.0
102
RTVSPost2010PropOp39
 70
     0
102
RTVSPost2010Prop40
 90
        0
102
RTVSPost2010PropOp40
 70
     0
102
RTVSPost2010Prop41ColorIndex
 90
       18
102
RTVSPost2010Prop41ColorRGB
 90
        0
102
RTVSPost2010PropOp41
 70
     0
102
RTVSPost2010Prop42
 90
       50
102
RTVSPost2010PropOp42
 70
     0
102
RTVSPost2010Prop43
 90
        3
102
RTVSPost2010PropOp43
 70
     0
102
RTVSPost2010Prop44ColorIndex
 90
        5
102
RTVSPost2010Prop44ColorRGB
 90
      255
102
RTVSPost2010PropOp44
 70
     0
102
RTVSPost2010Prop45
280
     0
102
RTVSPost2010PropOp45
 70
     0
102
RTVSPost2010Prop46
 90
       50
102
RTVSPost2010PropOp46
 70
     0
102
RTVSPost2010Prop47
 90
       50
102
RTVSPost2010PropOp47
 70
     0
102
RTVSPost2010Prop48
 90
       50
102
RTVSPost2010PropOp48
 70
     0
102
RTVSPost2010Prop49
280
     0
102
RTVSPost2010PropOp49
 70
     0
102
RTVSPost2010Prop50
 90
       50
102
RTVSPost2010PropOp50
 70
     0
102
RTVSPost2010Prop51ColorIndex
 90
      256
102
RTVSPost2010Prop51ColorRGB
 90
-16777216
102
RTVSPost2010PropOp51
 70
     0
102
RTVSPost2010Prop52
140
1.0
102
RTVSPost2010PropOp52
 70
     0
102
RTVSPost2010Prop53
 90
        2
102
RTVSPost2010PropOp53
 70
     0
102
RTVSPost2010Prop54
  1
strokes_ogs.tif
102
RTVSPost2010PropOp54
 70
     0
102
RTVSPost2010Prop55
280
     0
102
RTVSPost2010PropOp55
 70
     0
102
RTVSPost2010Prop56
140
1.0
102
RTVSPost2010PropOp56
 70
     0
102
RTVSPost2010Prop57
140
1.0
102
RTVSPost2010PropOp57
 70
     0
  0
XRECORD
  5
4A8
102
{ACAD_REACTORS
330
4A7
102
}
330
4A7
100
AcDbXrecord
280
     1
102
RTVSPropertyOp0
 70
     1
102
RTVSPropertyOp1
 70
     1
102
RTVSPropertyOp2
 70
     1
102
RTVSPropertyOp3
 70
     1
102
RTVSPropertyOp4
 70
     1
102
RTVSPropertyOp5
 70
     1
102
RTVSPropertyOp6
 70
     1
102
RTVSPropertyOp7
 70
     1
102
RTVSPropertyOp8
 70
     1
102
RTVSPropertyOp9
 70
     1
102
RTVSPropertyOp10
 70
     1
102
RTVSPropertyOp11
 70
     1
102
RTVSPropertyOp12
 70
     1
102
RTVSPropertyOp13
 70
     1
102
RTVSPropertyOp14
 70
     1
102
RTVSPropertyOp15
 70
     1
102
RTVSPropertyOp16
 70
     1
102
RTVSPropertyOp17
 70
     1
102
RTVSPropertyOp18
 70
     1
102
RTVSPropertyOp19
 70
     1
102
RTVSPropertyOp20
 70
     1
102
RTVSPropertyOp21
 70
     1
102
RTVSPropertyOp22
 70
     1
102
RTVSPropertyOp23
 70
     1
102
RTVSPropertyOp24
 70
     1
102
RTVSPropertyOp25
 70
     1
102
RTVSPropertyOp26
 70
     1
102
RTVSPropertyOp27
 70
     1
102
RTVSPropertyOp28
 70
     1
102
RTVSPropertyOp29
 70
     1
102
RTVSPropertyOp30
 70
     1
102
RTVSPropertyOp31
 70
     1
102
RTVSPropertyOp32
 70
     1
102
RTVSPropertyOp33
 70
     1
102
RTVSPropertyOp34
 70
     1
102
RTVSPropertyOp35
 70
     1
102
RTVSPropertyOp36
 70
     1
102
RTVSPropertyOp37
 70
     1
102
RTVSPropertyOp38
 70
     1
102
RTVSPropertyOp39
 70
     1
102
RTVSPropertyOp40
 70
     1
102
RTVSPropertyOp41
 70
     1
102
RTVSPropertyOp42
 70
     1
102
RTVSPropertyOp43
 70
     1
102
RTVSPropertyOp44
 70
     1
102
RTVSPropertyOp45
 70
     1
102
RTVSPropertyOp46
 70
     1
102
RTVSPropertyOp47
 70
     1
102
RTVSPropertyOp48
 70
     1
102
RTVSPropertyOp49
 70
     1
102
RTVSPropertyOp50
 70
     1
102
RTVSPropertyOp51
 70
     0
102
RTVSPropertyOp52
 70
     0
102
RTVSPropertyOp53
 70
     1
102
RTVSPropertyOp54
 70
     1
102
RTVSPropertyOp55
 70
     1
102
RTVSPropertyOp56
 70
     1
102
RTVSPropertyOp57
 70
     1
102
RTVSPost2010Prop28
280
     0
102
RTVSPost2010PropOp28
 70
     1
102
RTVSPost2010Prop29
280
     1
102
RTVSPost2010PropOp29
 70
     1
102
RTVSPost2010Prop30
280
     1
102
RTVSPost2010PropOp30
 70
     1
102
RTVSPost2010Prop31
280
     0
102
RTVSPost2010PropOp31
 70
     1
102
RTVSPost2010Prop32
280
     0
102
RTVSPost2010PropOp32
 70
     1
102
RTVSPost2010Prop33
280
     0
102
RTVSPost2010PropOp33
 70
     1
102
RTVSPost2010Prop34
280
     0
102
RTVSPost2010PropOp34
 70
     1
102
RTVSPost2010Prop35
280
     0
102
RTVSPost2010PropOp35
 70
     1
102
RTVSPost2010Prop36
280
     0
102
RTVSPost2010PropOp36
 70
     1
102
RTVSPost2010Prop37
 90
       50
102
RTVSPost2010PropOp37
 70
     1
102
RTVSPost2010Prop38
140
0.0
102
RTVSPost2010PropOp38
 70
     1
102
RTVSPost2010Prop39
140
1.0
102
RTVSPost2010PropOp39
 70
     1
102
RTVSPost2010Prop40
 90
        0
102
RTVSPost2010PropOp40
 70
     1
102
RTVSPost2010Prop41ColorIndex
 90
       18
102
RTVSPost2010Prop41ColorRGB
 90
        0
102
RTVSPost2010PropOp41
 70
     1
102
RTVSPost2010Prop42
 90
       50
102
RTVSPost2010PropOp42
 70
     1
102
RTVSPost2010Prop43
 90
        3
102
RTVSPost2010PropOp43
 70
     1
102
RTVSPost2010Prop44ColorIndex
 90
        5
102
RTVSPost2010Prop44ColorRGB
 90
      255
102
RTVSPost2010PropOp44
 70
     1
102
RTVSPost2010Prop45
280
     0
102
RTVSPost2010PropOp45
 70
     1
102
RTVSPost2010Prop46
 90
       50
102
RTVSPost2010PropOp46
 70
     1
102
RTVSPost2010Prop47
 90
       50
102
RTVSPost2010PropOp47
 70
     1
102
RTVSPost2010Prop48
 90
       50
102
RTVSPost2010PropOp48
 70
     1
102
RTVSPost2010Prop49
280
     0
102
RTVSPost2010PropOp49
 70
     1
102
RTVSPost2010Prop50
 90
       50
102
RTVSPost2010PropOp50
 70
     1
102
RTVSPost2010Prop51ColorIndex
 90
      256
102
RTVSPost2010Prop51ColorRGB
 90
-16777216
102
RTVSPost2010PropOp51
 70
     0
102
RTVSPost2010Prop52
140
1.0
102
RTVSPost2010PropOp52
 70
     0
102
RTVSPost2010Prop53
 90
        2
102
RTVSPost2010PropOp53
 70
     1
102
RTVSPost2010Prop54
  1
strokes_ogs.tif
102
RTVSPost2010PropOp54
 70
     1
102
RTVSPost2010Prop55
280
     0
102
RTVSPost2010PropOp55
 70
     1
102
RTVSPost2010Prop56
140
1.0
102
RTVSPost2010PropOp56
 70
     1
102
RTVSPost2010Prop57
140
1.0
102
RTVSPost2010PropOp57
 70
     1
  0
XRECORD
  5
48C
102
{ACAD_REACTORS
330
48B
102
}
330
48B
100
AcDbXrecord
280
     1
102
RTVSPropertyOp0
 70
     1
102
RTVSPropertyOp1
 70
     1
102
RTVSPropertyOp2
 70
     1
102
RTVSPropertyOp3
 70
     1
102
RTVSPropertyOp4
 70
     1
102
RTVSPropertyOp5
 70
     1
102
RTVSPropertyOp6
 70
     1
102
RTVSPropertyOp7
 70
     1
102
RTVSPropertyOp8
 70
     1
102
RTVSPropertyOp9
 70
     1
102
RTVSPropertyOp10
 70
     1
102
RTVSPropertyOp11
 70
     1
102
RTVSPropertyOp12
 70
     1
102
RTVSPropertyOp13
 70
     1
102
RTVSPropertyOp14
 70
     1
102
RTVSPropertyOp15
 70
     1
102
RTVSPropertyOp16
 70
     1
102
RTVSPropertyOp17
 70
     1
102
RTVSPropertyOp18
 70
     1
102
RTVSPropertyOp19
 70
     1
102
RTVSPropertyOp20
 70
     1
102
RTVSPropertyOp21
 70
     1
102
RTVSPropertyOp22
 70
     1
102
RTVSPropertyOp23
 70
     1
102
RTVSPropertyOp24
 70
     1
102
RTVSPropertyOp25
 70
     1
102
RTVSPropertyOp26
 70
     1
102
RTVSPropertyOp27
 70
     1
102
RTVSPropertyOp28
 70
     1
102
RTVSPropertyOp29
 70
     1
102
RTVSPropertyOp30
 70
     1
102
RTVSPropertyOp31
 70
     1
102
RTVSPropertyOp32
 70
     1
102
RTVSPropertyOp33
 70
     1
102
RTVSPropertyOp34
 70
     1
102
RTVSPropertyOp35
 70
     1
102
RTVSPropertyOp36
 70
     1
102
RTVSPropertyOp37
 70
     1
102
RTVSPropertyOp38
 70
     1
102
RTVSPropertyOp39
 70
     1
102
RTVSPropertyOp40
 70
     1
102
RTVSPropertyOp41
 70
     1
102
RTVSPropertyOp42
 70
     1
102
RTVSPropertyOp43
 70
     1
102
RTVSPropertyOp44
 70
     1
102
RTVSPropertyOp45
 70
     1
102
RTVSPropertyOp46
 70
     1
102
RTVSPropertyOp47
 70
     1
102
RTVSPropertyOp48
 70
     1
102
RTVSPropertyOp49
 70
     1
102
RTVSPropertyOp50
 70
     1
102
RTVSPropertyOp51
 70
     0
102
RTVSPropertyOp52
 70
     0
102
RTVSPropertyOp53
 70
     1
102
RTVSPropertyOp54
 70
     1
102
RTVSPropertyOp55
 70
     1
102
RTVSPropertyOp56
 70
     1
102
RTVSPropertyOp57
 70
     1
102
RTVSPost2010Prop28
280
     0
102
RTVSPost2010PropOp28
 70
     1
102
RTVSPost2010Prop29
280
     1
102
RTVSPost2010PropOp29
 70
     1
102
RTVSPost2010Prop30
280
     1
102
RTVSPost2010PropOp30
 70
     1
102
RTVSPost2010Prop31
280
     0
102
RTVSPost2010PropOp31
 70
     1
102
RTVSPost2010Prop32
280
     0
102
RTVSPost2010PropOp32
 70
     1
102
RTVSPost2010Prop33
280
     0
102
RTVSPost2010PropOp33
 70
     1
102
RTVSPost2010Prop34
280
     0
102
RTVSPost2010PropOp34
 70
     1
102
RTVSPost2010Prop35
280
     0
102
RTVSPost2010PropOp35
 70
     1
102
RTVSPost2010Prop36
280
     0
102
RTVSPost2010PropOp36
 70
     1
102
RTVSPost2010Prop37
 90
       50
102
RTVSPost2010PropOp37
 70
     1
102
RTVSPost2010Prop38
140
0.0
102
RTVSPost2010PropOp38
 70
     1
102
RTVSPost2010Prop39
140
1.0
102
RTVSPost2010PropOp39
 70
     1
102
RTVSPost2010Prop40
 90
        0
102
RTVSPost2010PropOp40
 70
     1
102
RTVSPost2010Prop41ColorIndex
 90
       18
102
RTVSPost2010Prop41ColorRGB
 90
        0
102
RTVSPost2010PropOp41
 70
     1
102
RTVSPost2010Prop42
 90
       50
102
RTVSPost2010PropOp42
 70
     1
102
RTVSPost2010Prop43
 90
        3
102
RTVSPost2010PropOp43
 70
     1
102
RTVSPost2010Prop44ColorIndex
 90
        5
102
RTVSPost2010Prop44ColorRGB
 90
      255
102
RTVSPost2010PropOp44
 70
     1
102
RTVSPost2010Prop45
280
     0
102
RTVSPost2010PropOp45
 70
     1
102
RTVSPost2010Prop46
 90
       50
102
RTVSPost2010PropOp46
 70
     1
102
RTVSPost2010Prop47
 90
       50
102
RTVSPost2010PropOp47
 70
     1
102
RTVSPost2010Prop48
 90
       50
102
RTVSPost2010PropOp48
 70
     1
102
RTVSPost2010Prop49
280
     0
102
RTVSPost2010PropOp49
 70
     1
102
RTVSPost2010Prop50
 90
       50
102
RTVSPost2010PropOp50
 70
     1
102
RTVSPost2010Prop51ColorIndex
 90
      256
102
RTVSPost2010Prop51ColorRGB
 90
-16777216
102
RTVSPost2010PropOp51
 70
     0
102
RTVSPost2010Prop52
140
1.0
102
RTVSPost2010PropOp52
 70
     0
102
RTVSPost2010Prop53
 90
        2
102
RTVSPost2010PropOp53
 70
     1
102
RTVSPost2010Prop54
  1
strokes_ogs.tif
102
RTVSPost2010PropOp54
 70
     1
102
RTVSPost2010Prop55
280
     0
102
RTVSPost2010PropOp55
 70
     1
102
RTVSPost2010Prop56
140
1.0
102
RTVSPost2010PropOp56
 70
     1
102
RTVSPost2010Prop57
140
1.0
102
RTVSPost2010PropOp57
 70
     1
  0
XRECORD
  5
48E
102
{ACAD_REACTORS
330
48D
102
}
330
48D
100
AcDbXrecord
280
     1
102
RTVSPropertyOp0
 70
     1
102
RTVSPropertyOp1
 70
     1
102
RTVSPropertyOp2
 70
     1
102
RTVSPropertyOp3
 70
     1
102
RTVSPropertyOp4
 70
     1
102
RTVSPropertyOp5
 70
     1
102
RTVSPropertyOp6
 70
     1
102
RTVSPropertyOp7
 70
     1
102
RTVSPropertyOp8
 70
     1
102
RTVSPropertyOp9
 70
     1
102
RTVSPropertyOp10
 70
     1
102
RTVSPropertyOp11
 70
     1
102
RTVSPropertyOp12
 70
     1
102
RTVSPropertyOp13
 70
     1
102
RTVSPropertyOp14
 70
     1
102
RTVSPropertyOp15
 70
     1
102
RTVSPropertyOp16
 70
     1
102
RTVSPropertyOp17
 70
     1
102
RTVSPropertyOp18
 70
     1
102
RTVSPropertyOp19
 70
     1
102
RTVSPropertyOp20
 70
     1
102
RTVSPropertyOp21
 70
     1
102
RTVSPropertyOp22
 70
     1
102
RTVSPropertyOp23
 70
     1
102
RTVSPropertyOp24
 70
     1
102
RTVSPropertyOp25
 70
     1
102
RTVSPropertyOp26
 70
     1
102
RTVSPropertyOp27
 70
     1
102
RTVSPropertyOp28
 70
     1
102
RTVSPropertyOp29
 70
     1
102
RTVSPropertyOp30
 70
     1
102
RTVSPropertyOp31
 70
     1
102
RTVSPropertyOp32
 70
     1
102
RTVSPropertyOp33
 70
     1
102
RTVSPropertyOp34
 70
     1
102
RTVSPropertyOp35
 70
     1
102
RTVSPropertyOp36
 70
     1
102
RTVSPropertyOp37
 70
     1
102
RTVSPropertyOp38
 70
     1
102
RTVSPropertyOp39
 70
     1
102
RTVSPropertyOp40
 70
     1
102
RTVSPropertyOp41
 70
     1
102
RTVSPropertyOp42
 70
     1
102
RTVSPropertyOp43
 70
     1
102
RTVSPropertyOp44
 70
     1
102
RTVSPropertyOp45
 70
     1
102
RTVSPropertyOp46
 70
     1
102
RTVSPropertyOp47
 70
     1
102
RTVSPropertyOp48
 70
     1
102
RTVSPropertyOp49
 70
     1
102
RTVSPropertyOp50
 70
     1
102
RTVSPropertyOp51
 70
     0
102
RTVSPropertyOp52
 70
     0
102
RTVSPropertyOp53
 70
     1
102
RTVSPropertyOp54
 70
     1
102
RTVSPropertyOp55
 70
     1
102
RTVSPropertyOp56
 70
     1
102
RTVSPropertyOp57
 70
     1
102
RTVSPost2010Prop28
280
     0
102
RTVSPost2010PropOp28
 70
     1
102
RTVSPost2010Prop29
280
     1
102
RTVSPost2010PropOp29
 70
     1
102
RTVSPost2010Prop30
280
     1
102
RTVSPost2010PropOp30
 70
     1
102
RTVSPost2010Prop31
280
     0
102
RTVSPost2010PropOp31
 70
     1
102
RTVSPost2010Prop32
280
     0
102
RTVSPost2010PropOp32
 70
     1
102
RTVSPost2010Prop33
280
     0
102
RTVSPost2010PropOp33
 70
     1
102
RTVSPost2010Prop34
280
     0
102
RTVSPost2010PropOp34
 70
     1
102
RTVSPost2010Prop35
280
     0
102
RTVSPost2010PropOp35
 70
     1
102
RTVSPost2010Prop36
280
     0
102
RTVSPost2010PropOp36
 70
     1
102
RTVSPost2010Prop37
 90
       50
102
RTVSPost2010PropOp37
 70
     1
102
RTVSPost2010Prop38
140
0.0
102
RTVSPost2010PropOp38
 70
     1
102
RTVSPost2010Prop39
140
1.0
102
RTVSPost2010PropOp39
 70
     1
102
RTVSPost2010Prop40
 90
        0
102
RTVSPost2010PropOp40
 70
     1
102
RTVSPost2010Prop41ColorIndex
 90
       18
102
RTVSPost2010Prop41ColorRGB
 90
        0
102
RTVSPost2010PropOp41
 70
     1
102
RTVSPost2010Prop42
 90
       50
102
RTVSPost2010PropOp42
 70
     1
102
RTVSPost2010Prop43
 90
        3
102
RTVSPost2010PropOp43
 70
     1
102
RTVSPost2010Prop44ColorIndex
 90
        5
102
RTVSPost2010Prop44ColorRGB
 90
      255
102
RTVSPost2010PropOp44
 70
     1
102
RTVSPost2010Prop45
280
     0
102
RTVSPost2010PropOp45
 70
     1
102
RTVSPost2010Prop46
 90
       50
102
RTVSPost2010PropOp46
 70
     1
102
RTVSPost2010Prop47
 90
       50
102
RTVSPost2010PropOp47
 70
     1
102
RTVSPost2010Prop48
 90
       50
102
RTVSPost2010PropOp48
 70
     1
102
RTVSPost2010Prop49
280
     0
102
RTVSPost2010PropOp49
 70
     1
102
RTVSPost2010Prop50
 90
       50
102
RTVSPost2010PropOp50
 70
     1
102
RTVSPost2010Prop51ColorIndex
 90
      256
102
RTVSPost2010Prop51ColorRGB
 90
-16777216
102
RTVSPost2010PropOp51
 70
     0
102
RTVSPost2010Prop52
140
1.0
102
RTVSPost2010PropOp52
 70
     0
102
RTVSPost2010Prop53
 90
        2
102
RTVSPost2010PropOp53
 70
     1
102
RTVSPost2010Prop54
  1
strokes_ogs.tif
102
RTVSPost2010PropOp54
 70
     1
102
RTVSPost2010Prop55
280
     0
102
RTVSPost2010PropOp55
 70
     1
102
RTVSPost2010Prop56
140
1.0
102
RTVSPost2010PropOp56
 70
     1
102
RTVSPost2010Prop57
140
1.0
102
RTVSPost2010PropOp57
 70
     1
  0
XRECORD
  5
490
102
{ACAD_REACTORS
330
48F
102
}
330
48F
100
AcDbXrecord
280
     1
102
RTVSPropertyOp0
 70
     1
102
RTVSPropertyOp1
 70
     1
102
RTVSPropertyOp2
 70
     1
102
RTVSPropertyOp3
 70
     1
102
RTVSPropertyOp4
 70
     1
102
RTVSPropertyOp5
 70
     1
102
RTVSPropertyOp6
 70
     1
102
RTVSPropertyOp7
 70
     1
102
RTVSPropertyOp8
 70
     1
102
RTVSPropertyOp9
 70
     1
102
RTVSPropertyOp10
 70
     1
102
RTVSPropertyOp11
 70
     1
102
RTVSPropertyOp12
 70
     1
102
RTVSPropertyOp13
 70
     1
102
RTVSPropertyOp14
 70
     1
102
RTVSPropertyOp15
 70
     1
102
RTVSPropertyOp16
 70
     1
102
RTVSPropertyOp17
 70
     1
102
RTVSPropertyOp18
 70
     1
102
RTVSPropertyOp19
 70
     1
102
RTVSPropertyOp20
 70
     1
102
RTVSPropertyOp21
 70
     1
102
RTVSPropertyOp22
 70
     1
102
RTVSPropertyOp23
 70
     1
102
RTVSPropertyOp24
 70
     1
102
RTVSPropertyOp25
 70
     1
102
RTVSPropertyOp26
 70
     1
102
RTVSPropertyOp27
 70
     1
102
RTVSPropertyOp28
 70
     1
102
RTVSPropertyOp29
 70
     1
102
RTVSPropertyOp30
 70
     1
102
RTVSPropertyOp31
 70
     1
102
RTVSPropertyOp32
 70
     1
102
RTVSPropertyOp33
 70
     1
102
RTVSPropertyOp34
 70
     1
102
RTVSPropertyOp35
 70
     1
102
RTVSPropertyOp36
 70
     1
102
RTVSPropertyOp37
 70
     1
102
RTVSPropertyOp38
 70
     1
102
RTVSPropertyOp39
 70
     1
102
RTVSPropertyOp40
 70
     1
102
RTVSPropertyOp41
 70
     1
102
RTVSPropertyOp42
 70
     1
102
RTVSPropertyOp43
 70
     1
102
RTVSPropertyOp44
 70
     1
102
RTVSPropertyOp45
 70
     1
102
RTVSPropertyOp46
 70
     1
102
RTVSPropertyOp47
 70
     1
102
RTVSPropertyOp48
 70
     1
102
RTVSPropertyOp49
 70
     1
102
RTVSPropertyOp50
 70
     1
102
RTVSPropertyOp51
 70
     0
102
RTVSPropertyOp52
 70
     0
102
RTVSPropertyOp53
 70
     1
102
RTVSPropertyOp54
 70
     1
102
RTVSPropertyOp55
 70
     1
102
RTVSPropertyOp56
 70
     1
102
RTVSPropertyOp57
 70
     1
102
RTVSPost2010Prop28
280
     0
102
RTVSPost2010PropOp28
 70
     1
102
RTVSPost2010Prop29
280
     1
102
RTVSPost2010PropOp29
 70
     1
102
RTVSPost2010Prop30
280
     1
102
RTVSPost2010PropOp30
 70
     1
102
RTVSPost2010Prop31
280
     0
102
RTVSPost2010PropOp31
 70
     1
102
RTVSPost2010Prop32
280
     0
102
RTVSPost2010PropOp32
 70
     1
102
RTVSPost2010Prop33
280
     0
102
RTVSPost2010PropOp33
 70
     1
102
RTVSPost2010Prop34
280
     0
102
RTVSPost2010PropOp34
 70
     1
102
RTVSPost2010Prop35
280
     0
102
RTVSPost2010PropOp35
 70
     1
102
RTVSPost2010Prop36
280
     0
102
RTVSPost2010PropOp36
 70
     1
102
RTVSPost2010Prop37
 90
       50
102
RTVSPost2010PropOp37
 70
     1
102
RTVSPost2010Prop38
140
0.0
102
RTVSPost2010PropOp38
 70
     1
102
RTVSPost2010Prop39
140
1.0
102
RTVSPost2010PropOp39
 70
     1
102
RTVSPost2010Prop40
 90
        0
102
RTVSPost2010PropOp40
 70
     1
102
RTVSPost2010Prop41ColorIndex
 90
       18
102
RTVSPost2010Prop41ColorRGB
 90
        0
102
RTVSPost2010PropOp41
 70
     1
102
RTVSPost2010Prop42
 90
       50
102
RTVSPost2010PropOp42
 70
     1
102
RTVSPost2010Prop43
 90
        3
102
RTVSPost2010PropOp43
 70
     1
102
RTVSPost2010Prop44ColorIndex
 90
        5
102
RTVSPost2010Prop44ColorRGB
 90
      255
102
RTVSPost2010PropOp44
 70
     1
102
RTVSPost2010Prop45
280
     0
102
RTVSPost2010PropOp45
 70
     1
102
RTVSPost2010Prop46
 90
       50
102
RTVSPost2010PropOp46
 70
     1
102
RTVSPost2010Prop47
 90
       50
102
RTVSPost2010PropOp47
 70
     1
102
RTVSPost2010Prop48
 90
       50
102
RTVSPost2010PropOp48
 70
     1
102
RTVSPost2010Prop49
280
     0
102
RTVSPost2010PropOp49
 70
     1
102
RTVSPost2010Prop50
 90
       50
102
RTVSPost2010PropOp50
 70
     1
102
RTVSPost2010Prop51ColorIndex
 90
      256
102
RTVSPost2010Prop51ColorRGB
 90
-16777216
102
RTVSPost2010PropOp51
 70
     0
102
RTVSPost2010Prop52
140
1.0
102
RTVSPost2010PropOp52
 70
     0
102
RTVSPost2010Prop53
 90
        2
102
RTVSPost2010PropOp53
 70
     1
102
RTVSPost2010Prop54
  1
strokes_ogs.tif
102
RTVSPost2010PropOp54
 70
     1
102
RTVSPost2010Prop55
280
     0
102
RTVSPost2010PropOp55
 70
     1
102
RTVSPost2010Prop56
140
1.0
102
RTVSPost2010PropOp56
 70
     1
102
RTVSPost2010Prop57
140
1.0
102
RTVSPost2010PropOp57
 70
     1
  0
XRECORD
  5
492
102
{ACAD_REACTORS
330
491
102
}
330
491
100
AcDbXrecord
280
     1
102
RTVSPropertyOp0
 70
     1
102
RTVSPropertyOp1
 70
     1
102
RTVSPropertyOp2
 70
     1
102
RTVSPropertyOp3
 70
     1
102
RTVSPropertyOp4
 70
     1
102
RTVSPropertyOp5
 70
     1
102
RTVSPropertyOp6
 70
     1
102
RTVSPropertyOp7
 70
     1
102
RTVSPropertyOp8
 70
     1
102
RTVSPropertyOp9
 70
     1
102
RTVSPropertyOp10
 70
     1
102
RTVSPropertyOp11
 70
     1
102
RTVSPropertyOp12
 70
     1
102
RTVSPropertyOp13
 70
     1
102
RTVSPropertyOp14
 70
     1
102
RTVSPropertyOp15
 70
     1
102
RTVSPropertyOp16
 70
     1
102
RTVSPropertyOp17
 70
     1
102
RTVSPropertyOp18
 70
     1
102
RTVSPropertyOp19
 70
     1
102
RTVSPropertyOp20
 70
     1
102
RTVSPropertyOp21
 70
     1
102
RTVSPropertyOp22
 70
     1
102
RTVSPropertyOp23
 70
     1
102
RTVSPropertyOp24
 70
     1
102
RTVSPropertyOp25
 70
     1
102
RTVSPropertyOp26
 70
     1
102
RTVSPropertyOp27
 70
     1
102
RTVSPropertyOp28
 70
     1
102
RTVSPropertyOp29
 70
     1
102
RTVSPropertyOp30
 70
     1
102
RTVSPropertyOp31
 70
     1
102
RTVSPropertyOp32
 70
     1
102
RTVSPropertyOp33
 70
     1
102
RTVSPropertyOp34
 70
     1
102
RTVSPropertyOp35
 70
     1
102
RTVSPropertyOp36
 70
     1
102
RTVSPropertyOp37
 70
     1
102
RTVSPropertyOp38
 70
     1
102
RTVSPropertyOp39
 70
     1
102
RTVSPropertyOp40
 70
     1
102
RTVSPropertyOp41
 70
     1
102
RTVSPropertyOp42
 70
     1
102
RTVSPropertyOp43
 70
     1
102
RTVSPropertyOp44
 70
     1
102
RTVSPropertyOp45
 70
     1
102
RTVSPropertyOp46
 70
     1
102
RTVSPropertyOp47
 70
     1
102
RTVSPropertyOp48
 70
     1
102
RTVSPropertyOp49
 70
     1
102
RTVSPropertyOp50
 70
     1
102
RTVSPropertyOp51
 70
     0
102
RTVSPropertyOp52
 70
     0
102
RTVSPropertyOp53
 70
     1
102
RTVSPropertyOp54
 70
     1
102
RTVSPropertyOp55
 70
     1
102
RTVSPropertyOp56
 70
     1
102
RTVSPropertyOp57
 70
     1
102
RTVSPost2010Prop28
280
     0
102
RTVSPost2010PropOp28
 70
     1
102
RTVSPost2010Prop29
280
     1
102
RTVSPost2010PropOp29
 70
     1
102
RTVSPost2010Prop30
280
     1
102
RTVSPost2010PropOp30
 70
     1
102
RTVSPost2010Prop31
280
     0
102
RTVSPost2010PropOp31
 70
     1
102
RTVSPost2010Prop32
280
     0
102
RTVSPost2010PropOp32
 70
     1
102
RTVSPost2010Prop33
280
     0
102
RTVSPost2010PropOp33
 70
     1
102
RTVSPost2010Prop34
280
     0
102
RTVSPost2010PropOp34
 70
     1
102
RTVSPost2010Prop35
280
     0
102
RTVSPost2010PropOp35
 70
     1
102
RTVSPost2010Prop36
280
     0
102
RTVSPost2010PropOp36
 70
     1
102
RTVSPost2010Prop37
 90
       50
102
RTVSPost2010PropOp37
 70
     1
102
RTVSPost2010Prop38
140
0.0
102
RTVSPost2010PropOp38
 70
     1
102
RTVSPost2010Prop39
140
1.0
102
RTVSPost2010PropOp39
 70
     1
102
RTVSPost2010Prop40
 90
        0
102
RTVSPost2010PropOp40
 70
     1
102
RTVSPost2010Prop41ColorIndex
 90
       18
102
RTVSPost2010Prop41ColorRGB
 90
        0
102
RTVSPost2010PropOp41
 70
     1
102
RTVSPost2010Prop42
 90
       50
102
RTVSPost2010PropOp42
 70
     1
102
RTVSPost2010Prop43
 90
        3
102
RTVSPost2010PropOp43
 70
     1
102
RTVSPost2010Prop44ColorIndex
 90
        5
102
RTVSPost2010Prop44ColorRGB
 90
      255
102
RTVSPost2010PropOp44
 70
     1
102
RTVSPost2010Prop45
280
     0
102
RTVSPost2010PropOp45
 70
     1
102
RTVSPost2010Prop46
 90
       50
102
RTVSPost2010PropOp46
 70
     1
102
RTVSPost2010Prop47
 90
       50
102
RTVSPost2010PropOp47
 70
     1
102
RTVSPost2010Prop48
 90
       50
102
RTVSPost2010PropOp48
 70
     1
102
RTVSPost2010Prop49
280
     0
102
RTVSPost2010PropOp49
 70
     1
102
RTVSPost2010Prop50
 90
       50
102
RTVSPost2010PropOp50
 70
     1
102
RTVSPost2010Prop51ColorIndex
 90
      256
102
RTVSPost2010Prop51ColorRGB
 90
-16777216
102
RTVSPost2010PropOp51
 70
     0
102
RTVSPost2010Prop52
140
1.0
102
RTVSPost2010PropOp52
 70
     0
102
RTVSPost2010Prop53
 90
        2
102
RTVSPost2010PropOp53
 70
     1
102
RTVSPost2010Prop54
  1
strokes_ogs.tif
102
RTVSPost2010PropOp54
 70
     1
102
RTVSPost2010Prop55
280
     0
102
RTVSPost2010PropOp55
 70
     1
102
RTVSPost2010Prop56
140
1.0
102
RTVSPost2010PropOp56
 70
     1
102
RTVSPost2010Prop57
140
1.0
102
RTVSPost2010PropOp57
 70
     1
  0
XRECORD
  5
498
102
{ACAD_REACTORS
330
497
102
}
330
497
100
AcDbXrecord
280
     1
102
RTVSPropertyOp0
 70
     1
102
RTVSPropertyOp1
 70
     1
102
RTVSPropertyOp2
 70
     1
102
RTVSPropertyOp3
 70
     1
102
RTVSPropertyOp4
 70
     1
102
RTVSPropertyOp5
 70
     1
102
RTVSPropertyOp6
 70
     1
102
RTVSPropertyOp7
 70
     1
102
RTVSPropertyOp8
 70
     1
102
RTVSPropertyOp9
 70
     1
102
RTVSPropertyOp10
 70
     1
102
RTVSPropertyOp11
 70
     1
102
RTVSPropertyOp12
 70
     1
102
RTVSPropertyOp13
 70
     1
102
RTVSPropertyOp14
 70
     1
102
RTVSPropertyOp15
 70
     1
102
RTVSPropertyOp16
 70
     1
102
RTVSPropertyOp17
 70
     1
102
RTVSPropertyOp18
 70
     1
102
RTVSPropertyOp19
 70
     1
102
RTVSPropertyOp20
 70
     1
102
RTVSPropertyOp21
 70
     1
102
RTVSPropertyOp22
 70
     1
102
RTVSPropertyOp23
 70
     1
102
RTVSPropertyOp24
 70
     1
102
RTVSPropertyOp25
 70
     1
102
RTVSPropertyOp26
 70
     1
102
RTVSPropertyOp27
 70
     1
102
RTVSPropertyOp28
 70
     1
102
RTVSPropertyOp29
 70
     1
102
RTVSPropertyOp30
 70
     1
102
RTVSPropertyOp31
 70
     1
102
RTVSPropertyOp32
 70
     1
102
RTVSPropertyOp33
 70
     1
102
RTVSPropertyOp34
 70
     1
102
RTVSPropertyOp35
 70
     1
102
RTVSPropertyOp36
 70
     1
102
RTVSPropertyOp37
 70
     1
102
RTVSPropertyOp38
 70
     1
102
RTVSPropertyOp39
 70
     1
102
RTVSPropertyOp40
 70
     1
102
RTVSPropertyOp41
 70
     1
102
RTVSPropertyOp42
 70
     1
102
RTVSPropertyOp43
 70
     1
102
RTVSPropertyOp44
 70
     1
102
RTVSPropertyOp45
 70
     1
102
RTVSPropertyOp46
 70
     1
102
RTVSPropertyOp47
 70
     1
102
RTVSPropertyOp48
 70
     1
102
RTVSPropertyOp49
 70
     1
102
RTVSPropertyOp50
 70
     1
102
RTVSPropertyOp51
 70
     0
102
RTVSPropertyOp52
 70
     0
102
RTVSPropertyOp53
 70
     1
102
RTVSPropertyOp54
 70
     1
102
RTVSPropertyOp55
 70
     1
102
RTVSPropertyOp56
 70
     1
102
RTVSPropertyOp57
 70
     1
102
RTVSPost2010Prop28
280
     0
102
RTVSPost2010PropOp28
 70
     1
102
RTVSPost2010Prop29
280
     1
102
RTVSPost2010PropOp29
 70
     1
102
RTVSPost2010Prop30
280
     1
102
RTVSPost2010PropOp30
 70
     1
102
RTVSPost2010Prop31
280
     0
102
RTVSPost2010PropOp31
 70
     1
102
RTVSPost2010Prop32
280
     0
102
RTVSPost2010PropOp32
 70
     1
102
RTVSPost2010Prop33
280
     0
102
RTVSPost2010PropOp33
 70
     1
102
RTVSPost2010Prop34
280
     0
102
RTVSPost2010PropOp34
 70
     1
102
RTVSPost2010Prop35
280
     0
102
RTVSPost2010PropOp35
 70
     1
102
RTVSPost2010Prop36
280
     0
102
RTVSPost2010PropOp36
 70
     1
102
RTVSPost2010Prop37
 90
       50
102
RTVSPost2010PropOp37
 70
     1
102
RTVSPost2010Prop38
140
0.0
102
RTVSPost2010PropOp38
 70
     1
102
RTVSPost2010Prop39
140
1.0
102
RTVSPost2010PropOp39
 70
     1
102
RTVSPost2010Prop40
 90
        0
102
RTVSPost2010PropOp40
 70
     1
102
RTVSPost2010Prop41ColorIndex
 90
       18
102
RTVSPost2010Prop41ColorRGB
 90
        0
102
RTVSPost2010PropOp41
 70
     1
102
RTVSPost2010Prop42
 90
       50
102
RTVSPost2010PropOp42
 70
     1
102
RTVSPost2010Prop43
 90
        3
102
RTVSPost2010PropOp43
 70
     1
102
RTVSPost2010Prop44ColorIndex
 90
        5
102
RTVSPost2010Prop44ColorRGB
 90
      255
102
RTVSPost2010PropOp44
 70
     1
102
RTVSPost2010Prop45
280
     0
102
RTVSPost2010PropOp45
 70
     1
102
RTVSPost2010Prop46
 90
       50
102
RTVSPost2010PropOp46
 70
     1
102
RTVSPost2010Prop47
 90
       50
102
RTVSPost2010PropOp47
 70
     1
102
RTVSPost2010Prop48
 90
       50
102
RTVSPost2010PropOp48
 70
     1
102
RTVSPost2010Prop49
280
     0
102
RTVSPost2010PropOp49
 70
     1
102
RTVSPost2010Prop50
 90
       50
102
RTVSPost2010PropOp50
 70
     1
102
RTVSPost2010Prop51ColorIndex
 90
      256
102
RTVSPost2010Prop51ColorRGB
 90
-16777216
102
RTVSPost2010PropOp51
 70
     0
102
RTVSPost2010Prop52
140
1.0
102
RTVSPost2010PropOp52
 70
     0
102
RTVSPost2010Prop53
 90
        2
102
RTVSPost2010PropOp53
 70
     1
102
RTVSPost2010Prop54
  1
strokes_ogs.tif
102
RTVSPost2010PropOp54
 70
     1
102
RTVSPost2010Prop55
280
     0
102
RTVSPost2010PropOp55
 70
     1
102
RTVSPost2010Prop56
140
1.0
102
RTVSPost2010PropOp56
 70
     1
102
RTVSPost2010Prop57
140
1.0
102
RTVSPost2010PropOp57
 70
     1
  0
XRECORD
  5
4AC
102
{ACAD_REACTORS
330
4AB
102
}
330
4AB
100
AcDbXrecord
280
     1
102
RTVSPropertyOp0
 70
     0
102
RTVSPropertyOp1
 70
     0
102
RTVSPropertyOp2
 70
     0
102
RTVSPropertyOp3
 70
     0
102
RTVSPropertyOp4
 70
     0
102
RTVSPropertyOp5
 70
     0
102
RTVSPropertyOp6
 70
     0
102
RTVSPropertyOp7
 70
     0
102
RTVSPropertyOp8
 70
     0
102
RTVSPropertyOp9
 70
     0
102
RTVSPropertyOp10
 70
     0
102
RTVSPropertyOp11
 70
     0
102
RTVSPropertyOp12
 70
     0
102
RTVSPropertyOp13
 70
     0
102
RTVSPropertyOp14
 70
     2
102
RTVSPropertyOp15
 70
     0
102
RTVSPropertyOp16
 70
     0
102
RTVSPropertyOp17
 70
     0
102
RTVSPropertyOp18
 70
     0
102
RTVSPropertyOp19
 70
     0
102
RTVSPropertyOp20
 70
     0
102
RTVSPropertyOp21
 70
     0
102
RTVSPropertyOp22
 70
     0
102
RTVSPropertyOp23
 70
     0
102
RTVSPropertyOp24
 70
     0
102
RTVSPropertyOp25
 70
     0
102
RTVSPropertyOp26
 70
     0
102
RTVSPropertyOp27
 70
     0
102
RTVSPropertyOp28
 70
     0
102
RTVSPropertyOp29
 70
     0
102
RTVSPropertyOp30
 70
     0
102
RTVSPropertyOp31
 70
     0
102
RTVSPropertyOp32
 70
     0
102
RTVSPropertyOp33
 70
     0
102
RTVSPropertyOp34
 70
     0
102
RTVSPropertyOp35
 70
     0
102
RTVSPropertyOp36
 70
     0
102
RTVSPropertyOp37
 70
     0
102
RTVSPropertyOp38
 70
     0
102
RTVSPropertyOp39
 70
     0
102
RTVSPropertyOp40
 70
     0
102
RTVSPropertyOp41
 70
     0
102
RTVSPropertyOp42
 70
     0
102
RTVSPropertyOp43
 70
     0
102
RTVSPropertyOp44
 70
     0
102
RTVSPropertyOp45
 70
     0
102
RTVSPropertyOp46
 70
     0
102
RTVSPropertyOp47
 70
     0
102
RTVSPropertyOp48
 70
     0
102
RTVSPropertyOp49
 70
     0
102
RTVSPropertyOp50
 70
     0
102
RTVSPropertyOp51
 70
     0
102
RTVSPropertyOp52
 70
     0
102
RTVSPropertyOp53
 70
     0
102
RTVSPropertyOp54
 70
     0
102
RTVSPropertyOp55
 70
     0
102
RTVSPropertyOp56
 70
     0
102
RTVSPropertyOp57
 70
     0
102
RTVSPost2010Prop28
280
     0
102
RTVSPost2010PropOp28
 70
     0
102
RTVSPost2010Prop29
280
     1
102
RTVSPost2010PropOp29
 70
     0
102
RTVSPost2010Prop30
280
     1
102
RTVSPost2010PropOp30
 70
     0
102
RTVSPost2010Prop31
280
     0
102
RTVSPost2010PropOp31
 70
     0
102
RTVSPost2010Prop32
280
     0
102
RTVSPost2010PropOp32
 70
     0
102
RTVSPost2010Prop33
280
     0
102
RTVSPost2010PropOp33
 70
     0
102
RTVSPost2010Prop34
280
     0
102
RTVSPost2010PropOp34
 70
     0
102
RTVSPost2010Prop35
280
     0
102
RTVSPost2010PropOp35
 70
     0
102
RTVSPost2010Prop36
280
     0
102
RTVSPost2010PropOp36
 70
     0
102
RTVSPost2010Prop37
 90
       50
102
RTVSPost2010PropOp37
 70
     0
102
RTVSPost2010Prop38
140
0.0
102
RTVSPost2010PropOp38
 70
     0
102
RTVSPost2010Prop39
140
1.0
102
RTVSPost2010PropOp39
 70
     0
102
RTVSPost2010Prop40
 90
        0
102
RTVSPost2010PropOp40
 70
     0
102
RTVSPost2010Prop41ColorIndex
 90
       18
102
RTVSPost2010Prop41ColorRGB
 90
        0
102
RTVSPost2010PropOp41
 70
     0
102
RTVSPost2010Prop42
 90
       50
102
RTVSPost2010PropOp42
 70
     0
102
RTVSPost2010Prop43
 90
        3
102
RTVSPost2010PropOp43
 70
     0
102
RTVSPost2010Prop44ColorIndex
 90
        5
102
RTVSPost2010Prop44ColorRGB
 90
      255
102
RTVSPost2010PropOp44
 70
     0
102
RTVSPost2010Prop45
280
     0
102
RTVSPost2010PropOp45
 70
     0
102
RTVSPost2010Prop46
 90
       50
102
RTVSPost2010PropOp46
 70
     0
102
RTVSPost2010Prop47
 90
       50
102
RTVSPost2010PropOp47
 70
     0
102
RTVSPost2010Prop48
 90
       50
102
RTVSPost2010PropOp48
 70
     0
102
RTVSPost2010Prop49
280
     0
102
RTVSPost2010PropOp49
 70
     0
102
RTVSPost2010Prop50
 90
       50
102
RTVSPost2010PropOp50
 70
     0
102
RTVSPost2010Prop51ColorIndex
 90
      256
102
RTVSPost2010Prop51ColorRGB
 90
-16777216
102
RTVSPost2010PropOp51
 70
     0
102
RTVSPost2010Prop52
140
1.0
102
RTVSPost2010PropOp52
 70
     0
102
RTVSPost2010Prop53
 90
        2
102
RTVSPost2010PropOp53
 70
     0
102
RTVSPost2010Prop54
  1
strokes_ogs.tif
102
RTVSPost2010PropOp54
 70
     0
102
RTVSPost2010Prop55
280
     0
102
RTVSPost2010PropOp55
 70
     0
102
RTVSPost2010Prop56
140
1.0
102
RTVSPost2010PropOp56
 70
     0
102
RTVSPost2010Prop57
140
1.0
102
RTVSPost2010PropOp57
 70
     0
  0
XRECORD
  5
4A6
102
{ACAD_REACTORS
330
4A5
102
}
330
4A5
100
AcDbXrecord
280
     1
102
RTVSPropertyOp0
 70
     1
102
RTVSPropertyOp1
 70
     1
102
RTVSPropertyOp2
 70
     1
102
RTVSPropertyOp3
 70
     1
102
RTVSPropertyOp4
 70
     1
102
RTVSPropertyOp5
 70
     1
102
RTVSPropertyOp6
 70
     1
102
RTVSPropertyOp7
 70
     1
102
RTVSPropertyOp8
 70
     1
102
RTVSPropertyOp9
 70
     1
102
RTVSPropertyOp10
 70
     1
102
RTVSPropertyOp11
 70
     1
102
RTVSPropertyOp12
 70
     1
102
RTVSPropertyOp13
 70
     1
102
RTVSPropertyOp14
 70
     1
102
RTVSPropertyOp15
 70
     1
102
RTVSPropertyOp16
 70
     1
102
RTVSPropertyOp17
 70
     1
102
RTVSPropertyOp18
 70
     1
102
RTVSPropertyOp19
 70
     1
102
RTVSPropertyOp20
 70
     1
102
RTVSPropertyOp21
 70
     1
102
RTVSPropertyOp22
 70
     1
102
RTVSPropertyOp23
 70
     1
102
RTVSPropertyOp24
 70
     1
102
RTVSPropertyOp25
 70
     1
102
RTVSPropertyOp26
 70
     1
102
RTVSPropertyOp27
 70
     1
102
RTVSPropertyOp28
 70
     1
102
RTVSPropertyOp29
 70
     1
102
RTVSPropertyOp30
 70
     1
102
RTVSPropertyOp31
 70
     1
102
RTVSPropertyOp32
 70
     1
102
RTVSPropertyOp33
 70
     1
102
RTVSPropertyOp34
 70
     1
102
RTVSPropertyOp35
 70
     1
102
RTVSPropertyOp36
 70
     1
102
RTVSPropertyOp37
 70
     1
102
RTVSPropertyOp38
 70
     1
102
RTVSPropertyOp39
 70
     1
102
RTVSPropertyOp40
 70
     1
102
RTVSPropertyOp41
 70
     1
102
RTVSPropertyOp42
 70
     1
102
RTVSPropertyOp43
 70
     1
102
RTVSPropertyOp44
 70
     1
102
RTVSPropertyOp45
 70
     1
102
RTVSPropertyOp46
 70
     1
102
RTVSPropertyOp47
 70
     1
102
RTVSPropertyOp48
 70
     1
102
RTVSPropertyOp49
 70
     1
102
RTVSPropertyOp50
 70
     1
102
RTVSPropertyOp51
 70
     0
102
RTVSPropertyOp52
 70
     0
102
RTVSPropertyOp53
 70
     1
102
RTVSPropertyOp54
 70
     1
102
RTVSPropertyOp55
 70
     1
102
RTVSPropertyOp56
 70
     1
102
RTVSPropertyOp57
 70
     1
102
RTVSPost2010Prop28
280
     0
102
RTVSPost2010PropOp28
 70
     1
102
RTVSPost2010Prop29
280
     1
102
RTVSPost2010PropOp29
 70
     1
102
RTVSPost2010Prop30
280
     1
102
RTVSPost2010PropOp30
 70
     1
102
RTVSPost2010Prop31
280
     0
102
RTVSPost2010PropOp31
 70
     1
102
RTVSPost2010Prop32
280
     0
102
RTVSPost2010PropOp32
 70
     1
102
RTVSPost2010Prop33
280
     0
102
RTVSPost2010PropOp33
 70
     1
102
RTVSPost2010Prop34
280
     0
102
RTVSPost2010PropOp34
 70
     1
102
RTVSPost2010Prop35
280
     0
102
RTVSPost2010PropOp35
 70
     1
102
RTVSPost2010Prop36
280
     0
102
RTVSPost2010PropOp36
 70
     1
102
RTVSPost2010Prop37
 90
       50
102
RTVSPost2010PropOp37
 70
     1
102
RTVSPost2010Prop38
140
0.0
102
RTVSPost2010PropOp38
 70
     1
102
RTVSPost2010Prop39
140
1.0
102
RTVSPost2010PropOp39
 70
     1
102
RTVSPost2010Prop40
 90
        0
102
RTVSPost2010PropOp40
 70
     1
102
RTVSPost2010Prop41ColorIndex
 90
       18
102
RTVSPost2010Prop41ColorRGB
 90
        0
102
RTVSPost2010PropOp41
 70
     1
102
RTVSPost2010Prop42
 90
       50
102
RTVSPost2010PropOp42
 70
     1
102
RTVSPost2010Prop43
 90
        3
102
RTVSPost2010PropOp43
 70
     1
102
RTVSPost2010Prop44ColorIndex
 90
        5
102
RTVSPost2010Prop44ColorRGB
 90
      255
102
RTVSPost2010PropOp44
 70
     1
102
RTVSPost2010Prop45
280
     0
102
RTVSPost2010PropOp45
 70
     1
102
RTVSPost2010Prop46
 90
       50
102
RTVSPost2010PropOp46
 70
     1
102
RTVSPost2010Prop47
 90
       50
102
RTVSPost2010PropOp47
 70
     1
102
RTVSPost2010Prop48
 90
       50
102
RTVSPost2010PropOp48
 70
     1
102
RTVSPost2010Prop49
280
     0
102
RTVSPost2010PropOp49
 70
     1
102
RTVSPost2010Prop50
 90
       50
102
RTVSPost2010PropOp50
 70
     1
102
RTVSPost2010Prop51ColorIndex
 90
      256
102
RTVSPost2010Prop51ColorRGB
 90
-16777216
102
RTVSPost2010PropOp51
 70
     0
102
RTVSPost2010Prop52
140
1.0
102
RTVSPost2010PropOp52
 70
     0
102
RTVSPost2010Prop53
 90
        2
102
RTVSPost2010PropOp53
 70
     1
102
RTVSPost2010Prop54
  1
strokes_ogs.tif
102
RTVSPost2010PropOp54
 70
     1
102
RTVSPost2010Prop55
280
     0
102
RTVSPost2010PropOp55
 70
     1
102
RTVSPost2010Prop56
140
1.0
102
RTVSPost2010PropOp56
 70
     1
102
RTVSPost2010Prop57
140
1.0
102
RTVSPost2010PropOp57
 70
     1
  0
XRECORD
  5
4AE
102
{ACAD_REACTORS
330
4AD
102
}
330
4AD
100
AcDbXrecord
280
     1
102
RTVSPropertyOp0
 70
     0
102
RTVSPropertyOp1
 70
     0
102
RTVSPropertyOp2
 70
     0
102
RTVSPropertyOp3
 70
     0
102
RTVSPropertyOp4
 70
     0
102
RTVSPropertyOp5
 70
     0
102
RTVSPropertyOp6
 70
     0
102
RTVSPropertyOp7
 70
     0
102
RTVSPropertyOp8
 70
     0
102
RTVSPropertyOp9
 70
     0
102
RTVSPropertyOp10
 70
     0
102
RTVSPropertyOp11
 70
     0
102
RTVSPropertyOp12
 70
     0
102
RTVSPropertyOp13
 70
     0
102
RTVSPropertyOp14
 70
     2
102
RTVSPropertyOp15
 70
     0
102
RTVSPropertyOp16
 70
     0
102
RTVSPropertyOp17
 70
     0
102
RTVSPropertyOp18
 70
     0
102
RTVSPropertyOp19
 70
     0
102
RTVSPropertyOp20
 70
     0
102
RTVSPropertyOp21
 70
     0
102
RTVSPropertyOp22
 70
     0
102
RTVSPropertyOp23
 70
     0
102
RTVSPropertyOp24
 70
     0
102
RTVSPropertyOp25
 70
     0
102
RTVSPropertyOp26
 70
     0
102
RTVSPropertyOp27
 70
     0
102
RTVSPropertyOp28
 70
     0
102
RTVSPropertyOp29
 70
     0
102
RTVSPropertyOp30
 70
     0
102
RTVSPropertyOp31
 70
     0
102
RTVSPropertyOp32
 70
     0
102
RTVSPropertyOp33
 70
     0
102
RTVSPropertyOp34
 70
     0
102
RTVSPropertyOp35
 70
     0
102
RTVSPropertyOp36
 70
     0
102
RTVSPropertyOp37
 70
     0
102
RTVSPropertyOp38
 70
     0
102
RTVSPropertyOp39
 70
     0
102
RTVSPropertyOp40
 70
     0
102
RTVSPropertyOp41
 70
     0
102
RTVSPropertyOp42
 70
     0
102
RTVSPropertyOp43
 70
     0
102
RTVSPropertyOp44
 70
     0
102
RTVSPropertyOp45
 70
     0
102
RTVSPropertyOp46
 70
     0
102
RTVSPropertyOp47
 70
     0
102
RTVSPropertyOp48
 70
     0
102
RTVSPropertyOp49
 70
     0
102
RTVSPropertyOp50
 70
     0
102
RTVSPropertyOp51
 70
     0
102
RTVSPropertyOp52
 70
     0
102
RTVSPropertyOp53
 70
     0
102
RTVSPropertyOp54
 70
     0
102
RTVSPropertyOp55
 70
     0
102
RTVSPropertyOp56
 70
     0
102
RTVSPropertyOp57
 70
     0
102
RTVSPost2010Prop28
280
     0
102
RTVSPost2010PropOp28
 70
     0
102
RTVSPost2010Prop29
280
     1
102
RTVSPost2010PropOp29
 70
     0
102
RTVSPost2010Prop30
280
     1
102
RTVSPost2010PropOp30
 70
     0
102
RTVSPost2010Prop31
280
     0
102
RTVSPost2010PropOp31
 70
     0
102
RTVSPost2010Prop32
280
     0
102
RTVSPost2010PropOp32
 70
     0
102
RTVSPost2010Prop33
280
     0
102
RTVSPost2010PropOp33
 70
     0
102
RTVSPost2010Prop34
280
     0
102
RTVSPost2010PropOp34
 70
     0
102
RTVSPost2010Prop35
280
     0
102
RTVSPost2010PropOp35
 70
     0
102
RTVSPost2010Prop36
280
     0
102
RTVSPost2010PropOp36
 70
     0
102
RTVSPost2010Prop37
 90
       50
102
RTVSPost2010PropOp37
 70
     0
102
RTVSPost2010Prop38
140
0.0
102
RTVSPost2010PropOp38
 70
     0
102
RTVSPost2010Prop39
140
1.0
102
RTVSPost2010PropOp39
 70
     0
102
RTVSPost2010Prop40
 90
        0
102
RTVSPost2010PropOp40
 70
     0
102
RTVSPost2010Prop41ColorIndex
 90
       18
102
RTVSPost2010Prop41ColorRGB
 90
        0
102
RTVSPost2010PropOp41
 70
     0
102
RTVSPost2010Prop42
 90
       50
102
RTVSPost2010PropOp42
 70
     0
102
RTVSPost2010Prop43
 90
        3
102
RTVSPost2010PropOp43
 70
     0
102
RTVSPost2010Prop44ColorIndex
 90
        5
102
RTVSPost2010Prop44ColorRGB
 90
      255
102
RTVSPost2010PropOp44
 70
     0
102
RTVSPost2010Prop45
280
     0
102
RTVSPost2010PropOp45
 70
     0
102
RTVSPost2010Prop46
 90
       50
102
RTVSPost2010PropOp46
 70
     0
102
RTVSPost2010Prop47
 90
       50
102
RTVSPost2010PropOp47
 70
     0
102
RTVSPost2010Prop48
 90
       50
102
RTVSPost2010PropOp48
 70
     0
102
RTVSPost2010Prop49
280
     0
102
RTVSPost2010PropOp49
 70
     0
102
RTVSPost2010Prop50
 90
       50
102
RTVSPost2010PropOp50
 70
     0
102
RTVSPost2010Prop51ColorIndex
 90
      256
102
RTVSPost2010Prop51ColorRGB
 90
-16777216
102
RTVSPost2010PropOp51
 70
     0
102
RTVSPost2010Prop52
140
1.0
102
RTVSPost2010PropOp52
 70
     0
102
RTVSPost2010Prop53
 90
        2
102
RTVSPost2010PropOp53
 70
     0
102
RTVSPost2010Prop54
  1
strokes_ogs.tif
102
RTVSPost2010PropOp54
 70
     0
102
RTVSPost2010Prop55
280
     0
102
RTVSPost2010PropOp55
 70
     0
102
RTVSPost2010Prop56
140
1.0
102
RTVSPost2010PropOp56
 70
     0
102
RTVSPost2010Prop57
140
1.0
102
RTVSPost2010PropOp57
 70
     0
  0
XRECORD
  5
49C
102
{ACAD_REACTORS
330
49B
102
}
330
49B
100
AcDbXrecord
280
     1
102
RTVSPropertyOp0
 70
     1
102
RTVSPropertyOp1
 70
     1
102
RTVSPropertyOp2
 70
     1
102
RTVSPropertyOp3
 70
     1
102
RTVSPropertyOp4
 70
     1
102
RTVSPropertyOp5
 70
     1
102
RTVSPropertyOp6
 70
     1
102
RTVSPropertyOp7
 70
     1
102
RTVSPropertyOp8
 70
     1
102
RTVSPropertyOp9
 70
     1
102
RTVSPropertyOp10
 70
     1
102
RTVSPropertyOp11
 70
     1
102
RTVSPropertyOp12
 70
     1
102
RTVSPropertyOp13
 70
     1
102
RTVSPropertyOp14
 70
     1
102
RTVSPropertyOp15
 70
     1
102
RTVSPropertyOp16
 70
     1
102
RTVSPropertyOp17
 70
     1
102
RTVSPropertyOp18
 70
     1
102
RTVSPropertyOp19
 70
     1
102
RTVSPropertyOp20
 70
     1
102
RTVSPropertyOp21
 70
     1
102
RTVSPropertyOp22
 70
     1
102
RTVSPropertyOp23
 70
     1
102
RTVSPropertyOp24
 70
     1
102
RTVSPropertyOp25
 70
     1
102
RTVSPropertyOp26
 70
     1
102
RTVSPropertyOp27
 70
     1
102
RTVSPropertyOp28
 70
     1
102
RTVSPropertyOp29
 70
     1
102
RTVSPropertyOp30
 70
     1
102
RTVSPropertyOp31
 70
     1
102
RTVSPropertyOp32
 70
     1
102
RTVSPropertyOp33
 70
     1
102
RTVSPropertyOp34
 70
     1
102
RTVSPropertyOp35
 70
     1
102
RTVSPropertyOp36
 70
     1
102
RTVSPropertyOp37
 70
     1
102
RTVSPropertyOp38
 70
     1
102
RTVSPropertyOp39
 70
     1
102
RTVSPropertyOp40
 70
     1
102
RTVSPropertyOp41
 70
     1
102
RTVSPropertyOp42
 70
     1
102
RTVSPropertyOp43
 70
     1
102
RTVSPropertyOp44
 70
     1
102
RTVSPropertyOp45
 70
     1
102
RTVSPropertyOp46
 70
     1
102
RTVSPropertyOp47
 70
     1
102
RTVSPropertyOp48
 70
     1
102
RTVSPropertyOp49
 70
     1
102
RTVSPropertyOp50
 70
     1
102
RTVSPropertyOp51
 70
     0
102
RTVSPropertyOp52
 70
     0
102
RTVSPropertyOp53
 70
     1
102
RTVSPropertyOp54
 70
     1
102
RTVSPropertyOp55
 70
     1
102
RTVSPropertyOp56
 70
     1
102
RTVSPropertyOp57
 70
     1
102
RTVSPost2010Prop28
280
     0
102
RTVSPost2010PropOp28
 70
     1
102
RTVSPost2010Prop29
280
     1
102
RTVSPost2010PropOp29
 70
     1
102
RTVSPost2010Prop30
280
     1
102
RTVSPost2010PropOp30
 70
     1
102
RTVSPost2010Prop31
280
     0
102
RTVSPost2010PropOp31
 70
     1
102
RTVSPost2010Prop32
280
     0
102
RTVSPost2010PropOp32
 70
     1
102
RTVSPost2010Prop33
280
     0
102
RTVSPost2010PropOp33
 70
     1
102
RTVSPost2010Prop34
280
     0
102
RTVSPost2010PropOp34
 70
     1
102
RTVSPost2010Prop35
280
     0
102
RTVSPost2010PropOp35
 70
     1
102
RTVSPost2010Prop36
280
     0
102
RTVSPost2010PropOp36
 70
     1
102
RTVSPost2010Prop37
 90
       50
102
RTVSPost2010PropOp37
 70
     1
102
RTVSPost2010Prop38
140
0.0
102
RTVSPost2010PropOp38
 70
     1
102
RTVSPost2010Prop39
140
1.0
102
RTVSPost2010PropOp39
 70
     1
102
RTVSPost2010Prop40
 90
        0
102
RTVSPost2010PropOp40
 70
     1
102
RTVSPost2010Prop41ColorIndex
 90
       18
102
RTVSPost2010Prop41ColorRGB
 90
        0
102
RTVSPost2010PropOp41
 70
     1
102
RTVSPost2010Prop42
 90
       50
102
RTVSPost2010PropOp42
 70
     1
102
RTVSPost2010Prop43
 90
        3
102
RTVSPost2010PropOp43
 70
     1
102
RTVSPost2010Prop44ColorIndex
 90
        5
102
RTVSPost2010Prop44ColorRGB
 90
      255
102
RTVSPost2010PropOp44
 70
     1
102
RTVSPost2010Prop45
280
     0
102
RTVSPost2010PropOp45
 70
     1
102
RTVSPost2010Prop46
 90
       50
102
RTVSPost2010PropOp46
 70
     1
102
RTVSPost2010Prop47
 90
       50
102
RTVSPost2010PropOp47
 70
     1
102
RTVSPost2010Prop48
 90
       50
102
RTVSPost2010PropOp48
 70
     1
102
RTVSPost2010Prop49
280
     0
102
RTVSPost2010PropOp49
 70
     1
102
RTVSPost2010Prop50
 90
       50
102
RTVSPost2010PropOp50
 70
     1
102
RTVSPost2010Prop51ColorIndex
 90
      256
102
RTVSPost2010Prop51ColorRGB
 90
-16777216
102
RTVSPost2010PropOp51
 70
     0
102
RTVSPost2010Prop52
140
1.0
102
RTVSPost2010PropOp52
 70
     0
102
RTVSPost2010Prop53
 90
        2
102
RTVSPost2010PropOp53
 70
     1
102
RTVSPost2010Prop54
  1
strokes_ogs.tif
102
RTVSPost2010PropOp54
 70
     1
102
RTVSPost2010Prop55
280
     0
102
RTVSPost2010PropOp55
 70
     1
102
RTVSPost2010Prop56
140
1.0
102
RTVSPost2010PropOp56
 70
     1
102
RTVSPost2010Prop57
140
1.0
102
RTVSPost2010PropOp57
 70
     1
  0
XRECORD
  5
4BA
102
{ACAD_REACTORS
330
4B9
102
}
330
4B9
100
AcDbXrecord
280
     1
102
RTVSPropertyOp0
 70
     1
102
RTVSPropertyOp1
 70
     1
102
RTVSPropertyOp2
 70
     1
102
RTVSPropertyOp3
 70
     1
102
RTVSPropertyOp4
 70
     1
102
RTVSPropertyOp5
 70
     1
102
RTVSPropertyOp6
 70
     1
102
RTVSPropertyOp7
 70
     1
102
RTVSPropertyOp8
 70
     1
102
RTVSPropertyOp9
 70
     1
102
RTVSPropertyOp10
 70
     1
102
RTVSPropertyOp11
 70
     1
102
RTVSPropertyOp12
 70
     1
102
RTVSPropertyOp13
 70
     1
102
RTVSPropertyOp14
 70
     1
102
RTVSPropertyOp15
 70
     1
102
RTVSPropertyOp16
 70
     1
102
RTVSPropertyOp17
 70
     1
102
RTVSPropertyOp18
 70
     1
102
RTVSPropertyOp19
 70
     1
102
RTVSPropertyOp20
 70
     1
102
RTVSPropertyOp21
 70
     1
102
RTVSPropertyOp22
 70
     1
102
RTVSPropertyOp23
 70
     1
102
RTVSPropertyOp24
 70
     1
102
RTVSPropertyOp25
 70
     1
102
RTVSPropertyOp26
 70
     1
102
RTVSPropertyOp27
 70
     1
102
RTVSPropertyOp28
 70
     1
102
RTVSPropertyOp29
 70
     1
102
RTVSPropertyOp30
 70
     1
102
RTVSPropertyOp31
 70
     1
102
RTVSPropertyOp32
 70
     1
102
RTVSPropertyOp33
 70
     1
102
RTVSPropertyOp34
 70
     1
102
RTVSPropertyOp35
 70
     1
102
RTVSPropertyOp36
 70
     1
102
RTVSPropertyOp37
 70
     1
102
RTVSPropertyOp38
 70
     1
102
RTVSPropertyOp39
 70
     1
102
RTVSPropertyOp40
 70
     1
102
RTVSPropertyOp41
 70
     1
102
RTVSPropertyOp42
 70
     1
102
RTVSPropertyOp43
 70
     1
102
RTVSPropertyOp44
 70
     1
102
RTVSPropertyOp45
 70
     1
102
RTVSPropertyOp46
 70
     1
102
RTVSPropertyOp47
 70
     1
102
RTVSPropertyOp48
 70
     1
102
RTVSPropertyOp49
 70
     1
102
RTVSPropertyOp50
 70
     1
102
RTVSPropertyOp51
 70
     0
102
RTVSPropertyOp52
 70
     0
102
RTVSPropertyOp53
 70
     1
102
RTVSPropertyOp54
 70
     1
102
RTVSPropertyOp55
 70
     1
102
RTVSPropertyOp56
 70
     1
102
RTVSPropertyOp57
 70
     1
102
RTVSPost2010Prop28
280
     0
102
RTVSPost2010PropOp28
 70
     1
102
RTVSPost2010Prop29
280
     1
102
RTVSPost2010PropOp29
 70
     1
102
RTVSPost2010Prop30
280
     1
102
RTVSPost2010PropOp30
 70
     1
102
RTVSPost2010Prop31
280
     0
102
RTVSPost2010PropOp31
 70
     1
102
RTVSPost2010Prop32
280
     0
102
RTVSPost2010PropOp32
 70
     1
102
RTVSPost2010Prop33
280
     0
102
RTVSPost2010PropOp33
 70
     1
102
RTVSPost2010Prop34
280
     0
102
RTVSPost2010PropOp34
 70
     1
102
RTVSPost2010Prop35
280
     0
102
RTVSPost2010PropOp35
 70
     1
102
RTVSPost2010Prop36
280
     0
102
RTVSPost2010PropOp36
 70
     1
102
RTVSPost2010Prop37
 90
       50
102
RTVSPost2010PropOp37
 70
     1
102
RTVSPost2010Prop38
140
0.0
102
RTVSPost2010PropOp38
 70
     1
102
RTVSPost2010Prop39
140
1.0
102
RTVSPost2010PropOp39
 70
     1
102
RTVSPost2010Prop40
 90
        0
102
RTVSPost2010PropOp40
 70
     1
102
RTVSPost2010Prop41ColorIndex
 90
       18
102
RTVSPost2010Prop41ColorRGB
 90
        0
102
RTVSPost2010PropOp41
 70
     1
102
RTVSPost2010Prop42
 90
       50
102
RTVSPost2010PropOp42
 70
     1
102
RTVSPost2010Prop43
 90
        3
102
RTVSPost2010PropOp43
 70
     1
102
RTVSPost2010Prop44ColorIndex
 90
        5
102
RTVSPost2010Prop44ColorRGB
 90
      255
102
RTVSPost2010PropOp44
 70
     1
102
RTVSPost2010Prop45
280
     0
102
RTVSPost2010PropOp45
 70
     1
102
RTVSPost2010Prop46
 90
       50
102
RTVSPost2010PropOp46
 70
     1
102
RTVSPost2010Prop47
 90
       50
102
RTVSPost2010PropOp47
 70
     1
102
RTVSPost2010Prop48
 90
       50
102
RTVSPost2010PropOp48
 70
     1
102
RTVSPost2010Prop49
280
     0
102
RTVSPost2010PropOp49
 70
     1
102
RTVSPost2010Prop50
 90
       50
102
RTVSPost2010PropOp50
 70
     1
102
RTVSPost2010Prop51ColorIndex
 90
      256
102
RTVSPost2010Prop51ColorRGB
 90
-16777216
102
RTVSPost2010PropOp51
 70
     0
102
RTVSPost2010Prop52
140
1.0
102
RTVSPost2010PropOp52
 70
     0
102
RTVSPost2010Prop53
 90
        2
102
RTVSPost2010PropOp53
 70
     1
102
RTVSPost2010Prop54
  1
strokes_ogs.tif
102
RTVSPost2010PropOp54
 70
     1
102
RTVSPost2010Prop55
280
     0
102
RTVSPost2010PropOp55
 70
     1
102
RTVSPost2010Prop56
140
1.0
102
RTVSPost2010PropOp56
 70
     1
102
RTVSPost2010Prop57
140
1.0
102
RTVSPost2010PropOp57
 70
     1
  0
XRECORD
  5
4B8
102
{ACAD_REACTORS
330
4B7
102
}
330
4B7
100
AcDbXrecord
280
     1
102
RTVSPropertyOp0
 70
     1
102
RTVSPropertyOp1
 70
     1
102
RTVSPropertyOp2
 70
     1
102
RTVSPropertyOp3
 70
     1
102
RTVSPropertyOp4
 70
     1
102
RTVSPropertyOp5
 70
     1
102
RTVSPropertyOp6
 70
     1
102
RTVSPropertyOp7
 70
     1
102
RTVSPropertyOp8
 70
     1
102
RTVSPropertyOp9
 70
     1
102
RTVSPropertyOp10
 70
     1
102
RTVSPropertyOp11
 70
     1
102
RTVSPropertyOp12
 70
     1
102
RTVSPropertyOp13
 70
     1
102
RTVSPropertyOp14
 70
     1
102
RTVSPropertyOp15
 70
     1
102
RTVSPropertyOp16
 70
     1
102
RTVSPropertyOp17
 70
     1
102
RTVSPropertyOp18
 70
     1
102
RTVSPropertyOp19
 70
     1
102
RTVSPropertyOp20
 70
     1
102
RTVSPropertyOp21
 70
     1
102
RTVSPropertyOp22
 70
     1
102
RTVSPropertyOp23
 70
     1
102
RTVSPropertyOp24
 70
     1
102
RTVSPropertyOp25
 70
     1
102
RTVSPropertyOp26
 70
     1
102
RTVSPropertyOp27
 70
     1
102
RTVSPropertyOp28
 70
     1
102
RTVSPropertyOp29
 70
     1
102
RTVSPropertyOp30
 70
     1
102
RTVSPropertyOp31
 70
     1
102
RTVSPropertyOp32
 70
     1
102
RTVSPropertyOp33
 70
     1
102
RTVSPropertyOp34
 70
     1
102
RTVSPropertyOp35
 70
     1
102
RTVSPropertyOp36
 70
     1
102
RTVSPropertyOp37
 70
     1
102
RTVSPropertyOp38
 70
     1
102
RTVSPropertyOp39
 70
     1
102
RTVSPropertyOp40
 70
     1
102
RTVSPropertyOp41
 70
     1
102
RTVSPropertyOp42
 70
     1
102
RTVSPropertyOp43
 70
     1
102
RTVSPropertyOp44
 70
     1
102
RTVSPropertyOp45
 70
     1
102
RTVSPropertyOp46
 70
     1
102
RTVSPropertyOp47
 70
     1
102
RTVSPropertyOp48
 70
     1
102
RTVSPropertyOp49
 70
     1
102
RTVSPropertyOp50
 70
     1
102
RTVSPropertyOp51
 70
     0
102
RTVSPropertyOp52
 70
     0
102
RTVSPropertyOp53
 70
     1
102
RTVSPropertyOp54
 70
     1
102
RTVSPropertyOp55
 70
     1
102
RTVSPropertyOp56
 70
     1
102
RTVSPropertyOp57
 70
     1
102
RTVSPost2010Prop28
280
     0
102
RTVSPost2010PropOp28
 70
     1
102
RTVSPost2010Prop29
280
     1
102
RTVSPost2010PropOp29
 70
     1
102
RTVSPost2010Prop30
280
     1
102
RTVSPost2010PropOp30
 70
     1
102
RTVSPost2010Prop31
280
     0
102
RTVSPost2010PropOp31
 70
     1
102
RTVSPost2010Prop32
280
     0
102
RTVSPost2010PropOp32
 70
     1
102
RTVSPost2010Prop33
280
     0
102
RTVSPost2010PropOp33
 70
     1
102
RTVSPost2010Prop34
280
     0
102
RTVSPost2010PropOp34
 70
     1
102
RTVSPost2010Prop35
280
     0
102
RTVSPost2010PropOp35
 70
     1
102
RTVSPost2010Prop36
280
     0
102
RTVSPost2010PropOp36
 70
     1
102
RTVSPost2010Prop37
 90
       50
102
RTVSPost2010PropOp37
 70
     1
102
RTVSPost2010Prop38
140
0.0
102
RTVSPost2010PropOp38
 70
     1
102
RTVSPost2010Prop39
140
1.0
102
RTVSPost2010PropOp39
 70
     1
102
RTVSPost2010Prop40
 90
        0
102
RTVSPost2010PropOp40
 70
     1
102
RTVSPost2010Prop41ColorIndex
 90
       18
102
RTVSPost2010Prop41ColorRGB
 90
        0
102
RTVSPost2010PropOp41
 70
     1
102
RTVSPost2010Prop42
 90
       50
102
RTVSPost2010PropOp42
 70
     1
102
RTVSPost2010Prop43
 90
        3
102
RTVSPost2010PropOp43
 70
     1
102
RTVSPost2010Prop44ColorIndex
 90
        5
102
RTVSPost2010Prop44ColorRGB
 90
      255
102
RTVSPost2010PropOp44
 70
     1
102
RTVSPost2010Prop45
280
     0
102
RTVSPost2010PropOp45
 70
     1
102
RTVSPost2010Prop46
 90
       50
102
RTVSPost2010PropOp46
 70
     1
102
RTVSPost2010Prop47
 90
       50
102
RTVSPost2010PropOp47
 70
     1
102
RTVSPost2010Prop48
 90
       50
102
RTVSPost2010PropOp48
 70
     1
102
RTVSPost2010Prop49
280
     0
102
RTVSPost2010PropOp49
 70
     1
102
RTVSPost2010Prop50
 90
       50
102
RTVSPost2010PropOp50
 70
     1
102
RTVSPost2010Prop51ColorIndex
 90
      256
102
RTVSPost2010Prop51ColorRGB
 90
-16777216
102
RTVSPost2010PropOp51
 70
     0
102
RTVSPost2010Prop52
140
1.0
102
RTVSPost2010PropOp52
 70
     0
102
RTVSPost2010Prop53
 90
        2
102
RTVSPost2010PropOp53
 70
     1
102
RTVSPost2010Prop54
  1
strokes_ogs.tif
102
RTVSPost2010PropOp54
 70
     1
102
RTVSPost2010Prop55
280
     0
102
RTVSPost2010PropOp55
 70
     1
102
RTVSPost2010Prop56
140
1.0
102
RTVSPost2010PropOp56
 70
     1
102
RTVSPost2010Prop57
140
1.0
102
RTVSPost2010PropOp57
 70
     1
  0
XRECORD
  5
4B2
102
{ACAD_REACTORS
330
4B1
102
}
330
4B1
100
AcDbXrecord
280
     1
102
RTVSPropertyOp0
 70
     1
102
RTVSPropertyOp1
 70
     1
102
RTVSPropertyOp2
 70
     1
102
RTVSPropertyOp3
 70
     1
102
RTVSPropertyOp4
 70
     1
102
RTVSPropertyOp5
 70
     1
102
RTVSPropertyOp6
 70
     1
102
RTVSPropertyOp7
 70
     1
102
RTVSPropertyOp8
 70
     1
102
RTVSPropertyOp9
 70
     1
102
RTVSPropertyOp10
 70
     1
102
RTVSPropertyOp11
 70
     1
102
RTVSPropertyOp12
 70
     1
102
RTVSPropertyOp13
 70
     1
102
RTVSPropertyOp14
 70
     1
102
RTVSPropertyOp15
 70
     1
102
RTVSPropertyOp16
 70
     1
102
RTVSPropertyOp17
 70
     1
102
RTVSPropertyOp18
 70
     1
102
RTVSPropertyOp19
 70
     1
102
RTVSPropertyOp20
 70
     1
102
RTVSPropertyOp21
 70
     1
102
RTVSPropertyOp22
 70
     1
102
RTVSPropertyOp23
 70
     1
102
RTVSPropertyOp24
 70
     1
102
RTVSPropertyOp25
 70
     1
102
RTVSPropertyOp26
 70
     1
102
RTVSPropertyOp27
 70
     1
102
RTVSPropertyOp28
 70
     1
102
RTVSPropertyOp29
 70
     1
102
RTVSPropertyOp30
 70
     1
102
RTVSPropertyOp31
 70
     1
102
RTVSPropertyOp32
 70
     1
102
RTVSPropertyOp33
 70
     1
102
RTVSPropertyOp34
 70
     1
102
RTVSPropertyOp35
 70
     1
102
RTVSPropertyOp36
 70
     1
102
RTVSPropertyOp37
 70
     1
102
RTVSPropertyOp38
 70
     1
102
RTVSPropertyOp39
 70
     1
102
RTVSPropertyOp40
 70
     1
102
RTVSPropertyOp41
 70
     1
102
RTVSPropertyOp42
 70
     1
102
RTVSPropertyOp43
 70
     1
102
RTVSPropertyOp44
 70
     1
102
RTVSPropertyOp45
 70
     1
102
RTVSPropertyOp46
 70
     1
102
RTVSPropertyOp47
 70
     1
102
RTVSPropertyOp48
 70
     1
102
RTVSPropertyOp49
 70
     1
102
RTVSPropertyOp50
 70
     1
102
RTVSPropertyOp51
 70
     0
102
RTVSPropertyOp52
 70
     0
102
RTVSPropertyOp53
 70
     1
102
RTVSPropertyOp54
 70
     1
102
RTVSPropertyOp55
 70
     1
102
RTVSPropertyOp56
 70
     1
102
RTVSPropertyOp57
 70
     1
102
RTVSPost2010Prop28
280
     0
102
RTVSPost2010PropOp28
 70
     1
102
RTVSPost2010Prop29
280
     1
102
RTVSPost2010PropOp29
 70
     1
102
RTVSPost2010Prop30
280
     1
102
RTVSPost2010PropOp30
 70
     1
102
RTVSPost2010Prop31
280
     0
102
RTVSPost2010PropOp31
 70
     1
102
RTVSPost2010Prop32
280
     0
102
RTVSPost2010PropOp32
 70
     1
102
RTVSPost2010Prop33
280
     0
102
RTVSPost2010PropOp33
 70
     1
102
RTVSPost2010Prop34
280
     0
102
RTVSPost2010PropOp34
 70
     1
102
RTVSPost2010Prop35
280
     0
102
RTVSPost2010PropOp35
 70
     1
102
RTVSPost2010Prop36
280
     0
102
RTVSPost2010PropOp36
 70
     1
102
RTVSPost2010Prop37
 90
       50
102
RTVSPost2010PropOp37
 70
     1
102
RTVSPost2010Prop38
140
0.0
102
RTVSPost2010PropOp38
 70
     1
102
RTVSPost2010Prop39
140
1.0
102
RTVSPost2010PropOp39
 70
     1
102
RTVSPost2010Prop40
 90
        0
102
RTVSPost2010PropOp40
 70
     1
102
RTVSPost2010Prop41ColorIndex
 90
       18
102
RTVSPost2010Prop41ColorRGB
 90
        0
102
RTVSPost2010PropOp41
 70
     1
102
RTVSPost2010Prop42
 90
       50
102
RTVSPost2010PropOp42
 70
     1
102
RTVSPost2010Prop43
 90
        3
102
RTVSPost2010PropOp43
 70
     1
102
RTVSPost2010Prop44ColorIndex
 90
        5
102
RTVSPost2010Prop44ColorRGB
 90
      255
102
RTVSPost2010PropOp44
 70
     1
102
RTVSPost2010Prop45
280
     0
102
RTVSPost2010PropOp45
 70
     1
102
RTVSPost2010Prop46
 90
       50
102
RTVSPost2010PropOp46
 70
     1
102
RTVSPost2010Prop47
 90
       50
102
RTVSPost2010PropOp47
 70
     1
102
RTVSPost2010Prop48
 90
       50
102
RTVSPost2010PropOp48
 70
     1
102
RTVSPost2010Prop49
280
     0
102
RTVSPost2010PropOp49
 70
     1
102
RTVSPost2010Prop50
 90
       50
102
RTVSPost2010PropOp50
 70
     1
102
RTVSPost2010Prop51ColorIndex
 90
      256
102
RTVSPost2010Prop51ColorRGB
 90
-16777216
102
RTVSPost2010PropOp51
 70
     0
102
RTVSPost2010Prop52
140
1.0
102
RTVSPost2010PropOp52
 70
     0
102
RTVSPost2010Prop53
 90
        2
102
RTVSPost2010PropOp53
 70
     1
102
RTVSPost2010Prop54
  1
strokes_ogs.tif
102
RTVSPost2010PropOp54
 70
     1
102
RTVSPost2010Prop55
280
     0
102
RTVSPost2010PropOp55
 70
     1
102
RTVSPost2010Prop56
140
1.0
102
RTVSPost2010PropOp56
 70
     1
102
RTVSPost2010Prop57
140
1.0
102
RTVSPost2010PropOp57
 70
     1
  0
XRECORD
  5
4B4
102
{ACAD_REACTORS
330
4B3
102
}
330
4B3
100
AcDbXrecord
280
     1
102
RTVSPropertyOp0
 70
     1
102
RTVSPropertyOp1
 70
     1
102
RTVSPropertyOp2
 70
     1
102
RTVSPropertyOp3
 70
     1
102
RTVSPropertyOp4
 70
     1
102
RTVSPropertyOp5
 70
     1
102
RTVSPropertyOp6
 70
     1
102
RTVSPropertyOp7
 70
     1
102
RTVSPropertyOp8
 70
     1
102
RTVSPropertyOp9
 70
     1
102
RTVSPropertyOp10
 70
     1
102
RTVSPropertyOp11
 70
     1
102
RTVSPropertyOp12
 70
     1
102
RTVSPropertyOp13
 70
     1
102
RTVSPropertyOp14
 70
     1
102
RTVSPropertyOp15
 70
     1
102
RTVSPropertyOp16
 70
     1
102
RTVSPropertyOp17
 70
     1
102
RTVSPropertyOp18
 70
     1
102
RTVSPropertyOp19
 70
     1
102
RTVSPropertyOp20
 70
     1
102
RTVSPropertyOp21
 70
     1
102
RTVSPropertyOp22
 70
     1
102
RTVSPropertyOp23
 70
     1
102
RTVSPropertyOp24
 70
     1
102
RTVSPropertyOp25
 70
     1
102
RTVSPropertyOp26
 70
     1
102
RTVSPropertyOp27
 70
     1
102
RTVSPropertyOp28
 70
     1
102
RTVSPropertyOp29
 70
     1
102
RTVSPropertyOp30
 70
     1
102
RTVSPropertyOp31
 70
     1
102
RTVSPropertyOp32
 70
     1
102
RTVSPropertyOp33
 70
     1
102
RTVSPropertyOp34
 70
     1
102
RTVSPropertyOp35
 70
     1
102
RTVSPropertyOp36
 70
     1
102
RTVSPropertyOp37
 70
     1
102
RTVSPropertyOp38
 70
     1
102
RTVSPropertyOp39
 70
     1
102
RTVSPropertyOp40
 70
     1
102
RTVSPropertyOp41
 70
     1
102
RTVSPropertyOp42
 70
     1
102
RTVSPropertyOp43
 70
     1
102
RTVSPropertyOp44
 70
     1
102
RTVSPropertyOp45
 70
     1
102
RTVSPropertyOp46
 70
     1
102
RTVSPropertyOp47
 70
     1
102
RTVSPropertyOp48
 70
     1
102
RTVSPropertyOp49
 70
     1
102
RTVSPropertyOp50
 70
     1
102
RTVSPropertyOp51
 70
     0
102
RTVSPropertyOp52
 70
     0
102
RTVSPropertyOp53
 70
     1
102
RTVSPropertyOp54
 70
     1
102
RTVSPropertyOp55
 70
     1
102
RTVSPropertyOp56
 70
     1
102
RTVSPropertyOp57
 70
     1
102
RTVSPost2010Prop28
280
     0
102
RTVSPost2010PropOp28
 70
     1
102
RTVSPost2010Prop29
280
     1
102
RTVSPost2010PropOp29
 70
     1
102
RTVSPost2010Prop30
280
     1
102
RTVSPost2010PropOp30
 70
     1
102
RTVSPost2010Prop31
280
     0
102
RTVSPost2010PropOp31
 70
     1
102
RTVSPost2010Prop32
280
     0
102
RTVSPost2010PropOp32
 70
     1
102
RTVSPost2010Prop33
280
     0
102
RTVSPost2010PropOp33
 70
     1
102
RTVSPost2010Prop34
280
     0
102
RTVSPost2010PropOp34
 70
     1
102
RTVSPost2010Prop35
280
     0
102
RTVSPost2010PropOp35
 70
     1
102
RTVSPost2010Prop36
280
     0
102
RTVSPost2010PropOp36
 70
     1
102
RTVSPost2010Prop37
 90
       50
102
RTVSPost2010PropOp37
 70
     1
102
RTVSPost2010Prop38
140
0.0
102
RTVSPost2010PropOp38
 70
     1
102
RTVSPost2010Prop39
140
1.0
102
RTVSPost2010PropOp39
 70
     1
102
RTVSPost2010Prop40
 90
        0
102
RTVSPost2010PropOp40
 70
     1
102
RTVSPost2010Prop41ColorIndex
 90
       18
102
RTVSPost2010Prop41ColorRGB
 90
        0
102
RTVSPost2010PropOp41
 70
     1
102
RTVSPost2010Prop42
 90
       50
102
RTVSPost2010PropOp42
 70
     1
102
RTVSPost2010Prop43
 90
        3
102
RTVSPost2010PropOp43
 70
     1
102
RTVSPost2010Prop44ColorIndex
 90
        5
102
RTVSPost2010Prop44ColorRGB
 90
      255
102
RTVSPost2010PropOp44
 70
     1
102
RTVSPost2010Prop45
280
     0
102
RTVSPost2010PropOp45
 70
     1
102
RTVSPost2010Prop46
 90
       50
102
RTVSPost2010PropOp46
 70
     1
102
RTVSPost2010Prop47
 90
       50
102
RTVSPost2010PropOp47
 70
     1
102
RTVSPost2010Prop48
 90
       50
102
RTVSPost2010PropOp48
 70
     1
102
RTVSPost2010Prop49
280
     0
102
RTVSPost2010PropOp49
 70
     1
102
RTVSPost2010Prop50
 90
       50
102
RTVSPost2010PropOp50
 70
     1
102
RTVSPost2010Prop51ColorIndex
 90
      256
102
RTVSPost2010Prop51ColorRGB
 90
-16777216
102
RTVSPost2010PropOp51
 70
     0
102
RTVSPost2010Prop52
140
1.0
102
RTVSPost2010PropOp52
 70
     0
102
RTVSPost2010Prop53
 90
        2
102
RTVSPost2010PropOp53
 70
     1
102
RTVSPost2010Prop54
  1
strokes_ogs.tif
102
RTVSPost2010PropOp54
 70
     1
102
RTVSPost2010Prop55
280
     0
102
RTVSPost2010PropOp55
 70
     1
102
RTVSPost2010Prop56
140
1.0
102
RTVSPost2010PropOp56
 70
     1
102
RTVSPost2010Prop57
140
1.0
102
RTVSPost2010PropOp57
 70
     1
  0
XRECORD
  5
4A4
102
{ACAD_REACTORS
330
4A3
102
}
330
4A3
100
AcDbXrecord
280
     1
102
RTVSPropertyOp0
 70
     1
102
RTVSPropertyOp1
 70
     1
102
RTVSPropertyOp2
 70
     1
102
RTVSPropertyOp3
 70
     1
102
RTVSPropertyOp4
 70
     1
102
RTVSPropertyOp5
 70
     1
102
RTVSPropertyOp6
 70
     1
102
RTVSPropertyOp7
 70
     1
102
RTVSPropertyOp8
 70
     1
102
RTVSPropertyOp9
 70
     1
102
RTVSPropertyOp10
 70
     1
102
RTVSPropertyOp11
 70
     1
102
RTVSPropertyOp12
 70
     1
102
RTVSPropertyOp13
 70
     1
102
RTVSPropertyOp14
 70
     1
102
RTVSPropertyOp15
 70
     1
102
RTVSPropertyOp16
 70
     1
102
RTVSPropertyOp17
 70
     1
102
RTVSPropertyOp18
 70
     1
102
RTVSPropertyOp19
 70
     1
102
RTVSPropertyOp20
 70
     1
102
RTVSPropertyOp21
 70
     1
102
RTVSPropertyOp22
 70
     1
102
RTVSPropertyOp23
 70
     1
102
RTVSPropertyOp24
 70
     1
102
RTVSPropertyOp25
 70
     1
102
RTVSPropertyOp26
 70
     1
102
RTVSPropertyOp27
 70
     1
102
RTVSPropertyOp28
 70
     1
102
RTVSPropertyOp29
 70
     1
102
RTVSPropertyOp30
 70
     1
102
RTVSPropertyOp31
 70
     1
102
RTVSPropertyOp32
 70
     1
102
RTVSPropertyOp33
 70
     1
102
RTVSPropertyOp34
 70
     1
102
RTVSPropertyOp35
 70
     1
102
RTVSPropertyOp36
 70
     1
102
RTVSPropertyOp37
 70
     1
102
RTVSPropertyOp38
 70
     1
102
RTVSPropertyOp39
 70
     1
102
RTVSPropertyOp40
 70
     1
102
RTVSPropertyOp41
 70
     1
102
RTVSPropertyOp42
 70
     1
102
RTVSPropertyOp43
 70
     1
102
RTVSPropertyOp44
 70
     1
102
RTVSPropertyOp45
 70
     1
102
RTVSPropertyOp46
 70
     1
102
RTVSPropertyOp47
 70
     1
102
RTVSPropertyOp48
 70
     1
102
RTVSPropertyOp49
 70
     1
102
RTVSPropertyOp50
 70
     1
102
RTVSPropertyOp51
 70
     0
102
RTVSPropertyOp52
 70
     0
102
RTVSPropertyOp53
 70
     1
102
RTVSPropertyOp54
 70
     1
102
RTVSPropertyOp55
 70
     1
102
RTVSPropertyOp56
 70
     1
102
RTVSPropertyOp57
 70
     1
102
RTVSPost2010Prop28
280
     0
102
RTVSPost2010PropOp28
 70
     1
102
RTVSPost2010Prop29
280
     1
102
RTVSPost2010PropOp29
 70
     1
102
RTVSPost2010Prop30
280
     1
102
RTVSPost2010PropOp30
 70
     1
102
RTVSPost2010Prop31
280
     0
102
RTVSPost2010PropOp31
 70
     1
102
RTVSPost2010Prop32
280
     0
102
RTVSPost2010PropOp32
 70
     1
102
RTVSPost2010Prop33
280
     0
102
RTVSPost2010PropOp33
 70
     1
102
RTVSPost2010Prop34
280
     0
102
RTVSPost2010PropOp34
 70
     1
102
RTVSPost2010Prop35
280
     0
102
RTVSPost2010PropOp35
 70
     1
102
RTVSPost2010Prop36
280
     0
102
RTVSPost2010PropOp36
 70
     1
102
RTVSPost2010Prop37
 90
       50
102
RTVSPost2010PropOp37
 70
     1
102
RTVSPost2010Prop38
140
0.0
102
RTVSPost2010PropOp38
 70
     1
102
RTVSPost2010Prop39
140
1.0
102
RTVSPost2010PropOp39
 70
     1
102
RTVSPost2010Prop40
 90
        0
102
RTVSPost2010PropOp40
 70
     1
102
RTVSPost2010Prop41ColorIndex
 90
       18
102
RTVSPost2010Prop41ColorRGB
 90
        0
102
RTVSPost2010PropOp41
 70
     1
102
RTVSPost2010Prop42
 90
       50
102
RTVSPost2010PropOp42
 70
     1
102
RTVSPost2010Prop43
 90
        3
102
RTVSPost2010PropOp43
 70
     1
102
RTVSPost2010Prop44ColorIndex
 90
        5
102
RTVSPost2010Prop44ColorRGB
 90
      255
102
RTVSPost2010PropOp44
 70
     1
102
RTVSPost2010Prop45
280
     0
102
RTVSPost2010PropOp45
 70
     1
102
RTVSPost2010Prop46
 90
       50
102
RTVSPost2010PropOp46
 70
     1
102
RTVSPost2010Prop47
 90
       50
102
RTVSPost2010PropOp47
 70
     1
102
RTVSPost2010Prop48
 90
       50
102
RTVSPost2010PropOp48
 70
     1
102
RTVSPost2010Prop49
280
     0
102
RTVSPost2010PropOp49
 70
     1
102
RTVSPost2010Prop50
 90
       50
102
RTVSPost2010PropOp50
 70
     1
102
RTVSPost2010Prop51ColorIndex
 90
      256
102
RTVSPost2010Prop51ColorRGB
 90
-16777216
102
RTVSPost2010PropOp51
 70
     0
102
RTVSPost2010Prop52
140
1.0
102
RTVSPost2010PropOp52
 70
     0
102
RTVSPost2010Prop53
 90
        2
102
RTVSPost2010PropOp53
 70
     1
102
RTVSPost2010Prop54
  1
strokes_ogs.tif
102
RTVSPost2010PropOp54
 70
     1
102
RTVSPost2010Prop55
280
     0
102
RTVSPost2010PropOp55
 70
     1
102
RTVSPost2010Prop56
140
1.0
102
RTVSPost2010PropOp56
 70
     1
102
RTVSPost2010Prop57
140
1.0
102
RTVSPost2010PropOp57
 70
     1
  0
XRECORD
  5
496
102
{ACAD_REACTORS
330
495
102
}
330
495
100
AcDbXrecord
280
     1
102
RTVSPropertyOp0
 70
     1
102
RTVSPropertyOp1
 70
     1
102
RTVSPropertyOp2
 70
     1
102
RTVSPropertyOp3
 70
     1
102
RTVSPropertyOp4
 70
     1
102
RTVSPropertyOp5
 70
     1
102
RTVSPropertyOp6
 70
     1
102
RTVSPropertyOp7
 70
     1
102
RTVSPropertyOp8
 70
     1
102
RTVSPropertyOp9
 70
     1
102
RTVSPropertyOp10
 70
     1
102
RTVSPropertyOp11
 70
     1
102
RTVSPropertyOp12
 70
     1
102
RTVSPropertyOp13
 70
     1
102
RTVSPropertyOp14
 70
     1
102
RTVSPropertyOp15
 70
     1
102
RTVSPropertyOp16
 70
     1
102
RTVSPropertyOp17
 70
     1
102
RTVSPropertyOp18
 70
     1
102
RTVSPropertyOp19
 70
     1
102
RTVSPropertyOp20
 70
     1
102
RTVSPropertyOp21
 70
     1
102
RTVSPropertyOp22
 70
     1
102
RTVSPropertyOp23
 70
     1
102
RTVSPropertyOp24
 70
     1
102
RTVSPropertyOp25
 70
     1
102
RTVSPropertyOp26
 70
     1
102
RTVSPropertyOp27
 70
     1
102
RTVSPropertyOp28
 70
     1
102
RTVSPropertyOp29
 70
     1
102
RTVSPropertyOp30
 70
     1
102
RTVSPropertyOp31
 70
     1
102
RTVSPropertyOp32
 70
     1
102
RTVSPropertyOp33
 70
     1
102
RTVSPropertyOp34
 70
     1
102
RTVSPropertyOp35
 70
     1
102
RTVSPropertyOp36
 70
     1
102
RTVSPropertyOp37
 70
     1
102
RTVSPropertyOp38
 70
     1
102
RTVSPropertyOp39
 70
     1
102
RTVSPropertyOp40
 70
     1
102
RTVSPropertyOp41
 70
     1
102
RTVSPropertyOp42
 70
     1
102
RTVSPropertyOp43
 70
     1
102
RTVSPropertyOp44
 70
     1
102
RTVSPropertyOp45
 70
     1
102
RTVSPropertyOp46
 70
     1
102
RTVSPropertyOp47
 70
     1
102
RTVSPropertyOp48
 70
     1
102
RTVSPropertyOp49
 70
     1
102
RTVSPropertyOp50
 70
     1
102
RTVSPropertyOp51
 70
     0
102
RTVSPropertyOp52
 70
     0
102
RTVSPropertyOp53
 70
     1
102
RTVSPropertyOp54
 70
     1
102
RTVSPropertyOp55
 70
     1
102
RTVSPropertyOp56
 70
     1
102
RTVSPropertyOp57
 70
     1
102
RTVSPost2010Prop28
280
     0
102
RTVSPost2010PropOp28
 70
     1
102
RTVSPost2010Prop29
280
     1
102
RTVSPost2010PropOp29
 70
     1
102
RTVSPost2010Prop30
280
     1
102
RTVSPost2010PropOp30
 70
     1
102
RTVSPost2010Prop31
280
     0
102
RTVSPost2010PropOp31
 70
     1
102
RTVSPost2010Prop32
280
     0
102
RTVSPost2010PropOp32
 70
     1
102
RTVSPost2010Prop33
280
     0
102
RTVSPost2010PropOp33
 70
     1
102
RTVSPost2010Prop34
280
     0
102
RTVSPost2010PropOp34
 70
     1
102
RTVSPost2010Prop35
280
     0
102
RTVSPost2010PropOp35
 70
     1
102
RTVSPost2010Prop36
280
     0
102
RTVSPost2010PropOp36
 70
     1
102
RTVSPost2010Prop37
 90
       50
102
RTVSPost2010PropOp37
 70
     1
102
RTVSPost2010Prop38
140
0.0
102
RTVSPost2010PropOp38
 70
     1
102
RTVSPost2010Prop39
140
1.0
102
RTVSPost2010PropOp39
 70
     1
102
RTVSPost2010Prop40
 90
        0
102
RTVSPost2010PropOp40
 70
     1
102
RTVSPost2010Prop41ColorIndex
 90
       18
102
RTVSPost2010Prop41ColorRGB
 90
        0
102
RTVSPost2010PropOp41
 70
     1
102
RTVSPost2010Prop42
 90
       50
102
RTVSPost2010PropOp42
 70
     1
102
RTVSPost2010Prop43
 90
        3
102
RTVSPost2010PropOp43
 70
     1
102
RTVSPost2010Prop44ColorIndex
 90
        5
102
RTVSPost2010Prop44ColorRGB
 90
      255
102
RTVSPost2010PropOp44
 70
     1
102
RTVSPost2010Prop45
280
     0
102
RTVSPost2010PropOp45
 70
     1
102
RTVSPost2010Prop46
 90
       50
102
RTVSPost2010PropOp46
 70
     1
102
RTVSPost2010Prop47
 90
       50
102
RTVSPost2010PropOp47
 70
     1
102
RTVSPost2010Prop48
 90
       50
102
RTVSPost2010PropOp48
 70
     1
102
RTVSPost2010Prop49
280
     0
102
RTVSPost2010PropOp49
 70
     1
102
RTVSPost2010Prop50
 90
       50
102
RTVSPost2010PropOp50
 70
     1
102
RTVSPost2010Prop51ColorIndex
 90
      256
102
RTVSPost2010Prop51ColorRGB
 90
-16777216
102
RTVSPost2010PropOp51
 70
     0
102
RTVSPost2010Prop52
140
1.0
102
RTVSPost2010PropOp52
 70
     0
102
RTVSPost2010Prop53
 90
        2
102
RTVSPost2010PropOp53
 70
     1
102
RTVSPost2010Prop54
  1
strokes_ogs.tif
102
RTVSPost2010PropOp54
 70
     1
102
RTVSPost2010Prop55
280
     0
102
RTVSPost2010PropOp55
 70
     1
102
RTVSPost2010Prop56
140
1.0
102
RTVSPost2010PropOp56
 70
     1
102
RTVSPost2010Prop57
140
1.0
102
RTVSPost2010PropOp57
 70
     1
  0
XRECORD
  5
4B6
102
{ACAD_REACTORS
330
4B5
102
}
330
4B5
100
AcDbXrecord
280
     1
102
RTVSPropertyOp0
 70
     1
102
RTVSPropertyOp1
 70
     1
102
RTVSPropertyOp2
 70
     1
102
RTVSPropertyOp3
 70
     1
102
RTVSPropertyOp4
 70
     1
102
RTVSPropertyOp5
 70
     1
102
RTVSPropertyOp6
 70
     1
102
RTVSPropertyOp7
 70
     1
102
RTVSPropertyOp8
 70
     1
102
RTVSPropertyOp9
 70
     1
102
RTVSPropertyOp10
 70
     1
102
RTVSPropertyOp11
 70
     1
102
RTVSPropertyOp12
 70
     1
102
RTVSPropertyOp13
 70
     1
102
RTVSPropertyOp14
 70
     1
102
RTVSPropertyOp15
 70
     1
102
RTVSPropertyOp16
 70
     1
102
RTVSPropertyOp17
 70
     1
102
RTVSPropertyOp18
 70
     1
102
RTVSPropertyOp19
 70
     1
102
RTVSPropertyOp20
 70
     1
102
RTVSPropertyOp21
 70
     1
102
RTVSPropertyOp22
 70
     1
102
RTVSPropertyOp23
 70
     1
102
RTVSPropertyOp24
 70
     1
102
RTVSPropertyOp25
 70
     1
102
RTVSPropertyOp26
 70
     1
102
RTVSPropertyOp27
 70
     1
102
RTVSPropertyOp28
 70
     1
102
RTVSPropertyOp29
 70
     1
102
RTVSPropertyOp30
 70
     1
102
RTVSPropertyOp31
 70
     1
102
RTVSPropertyOp32
 70
     1
102
RTVSPropertyOp33
 70
     1
102
RTVSPropertyOp34
 70
     1
102
RTVSPropertyOp35
 70
     1
102
RTVSPropertyOp36
 70
     1
102
RTVSPropertyOp37
 70
     1
102
RTVSPropertyOp38
 70
     1
102
RTVSPropertyOp39
 70
     1
102
RTVSPropertyOp40
 70
     1
102
RTVSPropertyOp41
 70
     1
102
RTVSPropertyOp42
 70
     1
102
RTVSPropertyOp43
 70
     1
102
RTVSPropertyOp44
 70
     1
102
RTVSPropertyOp45
 70
     1
102
RTVSPropertyOp46
 70
     1
102
RTVSPropertyOp47
 70
     1
102
RTVSPropertyOp48
 70
     1
102
RTVSPropertyOp49
 70
     1
102
RTVSPropertyOp50
 70
     1
102
RTVSPropertyOp51
 70
     0
102
RTVSPropertyOp52
 70
     0
102
RTVSPropertyOp53
 70
     1
102
RTVSPropertyOp54
 70
     1
102
RTVSPropertyOp55
 70
     1
102
RTVSPropertyOp56
 70
     1
102
RTVSPropertyOp57
 70
     1
102
RTVSPost2010Prop28
280
     0
102
RTVSPost2010PropOp28
 70
     1
102
RTVSPost2010Prop29
280
     1
102
RTVSPost2010PropOp29
 70
     1
102
RTVSPost2010Prop30
280
     1
102
RTVSPost2010PropOp30
 70
     1
102
RTVSPost2010Prop31
280
     0
102
RTVSPost2010PropOp31
 70
     1
102
RTVSPost2010Prop32
280
     0
102
RTVSPost2010PropOp32
 70
     1
102
RTVSPost2010Prop33
280
     0
102
RTVSPost2010PropOp33
 70
     1
102
RTVSPost2010Prop34
280
     0
102
RTVSPost2010PropOp34
 70
     1
102
RTVSPost2010Prop35
280
     0
102
RTVSPost2010PropOp35
 70
     1
102
RTVSPost2010Prop36
280
     0
102
RTVSPost2010PropOp36
 70
     1
102
RTVSPost2010Prop37
 90
       50
102
RTVSPost2010PropOp37
 70
     1
102
RTVSPost2010Prop38
140
0.0
102
RTVSPost2010PropOp38
 70
     1
102
RTVSPost2010Prop39
140
1.0
102
RTVSPost2010PropOp39
 70
     1
102
RTVSPost2010Prop40
 90
        0
102
RTVSPost2010PropOp40
 70
     1
102
RTVSPost2010Prop41ColorIndex
 90
       18
102
RTVSPost2010Prop41ColorRGB
 90
        0
102
RTVSPost2010PropOp41
 70
     1
102
RTVSPost2010Prop42
 90
       50
102
RTVSPost2010PropOp42
 70
     1
102
RTVSPost2010Prop43
 90
        3
102
RTVSPost2010PropOp43
 70
     1
102
RTVSPost2010Prop44ColorIndex
 90
        5
102
RTVSPost2010Prop44ColorRGB
 90
      255
102
RTVSPost2010PropOp44
 70
     1
102
RTVSPost2010Prop45
280
     0
102
RTVSPost2010PropOp45
 70
     1
102
RTVSPost2010Prop46
 90
       50
102
RTVSPost2010PropOp46
 70
     1
102
RTVSPost2010Prop47
 90
       50
102
RTVSPost2010PropOp47
 70
     1
102
RTVSPost2010Prop48
 90
       50
102
RTVSPost2010PropOp48
 70
     1
102
RTVSPost2010Prop49
280
     0
102
RTVSPost2010PropOp49
 70
     1
102
RTVSPost2010Prop50
 90
       50
102
RTVSPost2010PropOp50
 70
     1
102
RTVSPost2010Prop51ColorIndex
 90
      256
102
RTVSPost2010Prop51ColorRGB
 90
-16777216
102
RTVSPost2010PropOp51
 70
     0
102
RTVSPost2010Prop52
140
1.0
102
RTVSPost2010PropOp52
 70
     0
102
RTVSPost2010Prop53
 90
        2
102
RTVSPost2010PropOp53
 70
     1
102
RTVSPost2010Prop54
  1
strokes_ogs.tif
102
RTVSPost2010PropOp54
 70
     1
102
RTVSPost2010Prop55
280
     0
102
RTVSPost2010PropOp55
 70
     1
102
RTVSPost2010Prop56
140
1.0
102
RTVSPost2010PropOp56
 70
     1
102
RTVSPost2010Prop57
140
1.0
102
RTVSPost2010PropOp57
 70
     1
  0
ENDSEC
  0
EOF
